Oops, an error
Loading. Please wait.

Sappy Tab

version 5
version 5
5,090 views 3 this week
3 commentsread comments
1 2 3 4 5
x 8
add to favorites
launch autoscroll
font size
0
reset
how to read this tab
guitar tuner
Autoscroll
slow
fast
+/-
esc
set tempo
stop
Help us to improve Ultimate-Guitar.com Take our survey!
×
Author
Difficulty
intermediate
NIRVANA - SAPPY
Intro/Verse
e|-----------------333------------------------|
B|--3-33-33--------333------------------------|
G|--2-22-22---33---000---2-22-22---33---555---|
D|--0-00-00-0-33-0-000-0-2-22-22-0-33-0-555-0-|
A|--0-00-00-0-11-0-xxx-0-0-00-00-0-11-0-333-0-|
E|-----------------333------------------------|

(repeat as many times as necesarry)

Chorus
e|--------------------3-33-33-------------3-33-33-------------3-33-33---|
B|3-33-33-------------3-33-33-------------3-33-33-------------3-33-33---|
G|2-22-22---3-33-33---0-00-00---3-33-33---0-00-00---3-33-33---0-00-00---|
D|0-00-00-0-3-33-33-0-0-00-00-0-3-33-33-0-0-00-00-0-3-33-33-0-0-00-00---|
A|0-00-00-0-1-11-11-0-x-xx-xx-0-1-11-11-0-x-xx-xx-0-1-11-11-0-x-xx-xx---|
E|--------------------3-33-33-------------3-33-33-------------3-33-33---|

e|--------------|
B|--------------|
G|--3-33-33---2-|
D|--3-33-33-0-2-|
A|--1-11-11-0-0-|
E|--------------|

Solo
SOLO
e|-------------------------------------------------------------------------|
B|-------------------------------------------------------------------------|
G|-------------------5-5-7-7-7-9-9-9-9-9b-9-7-9-9b-9b-9-7------------------|
D|-------3-5/7--5-7--------------------------------------------------------|
A|--3/5---------------------------------------------------2-3-3-2----------|
E|-----------------------------------------------------------------5-3-----|

e|-------------------------------------------------------------------------|
B|-------------------------------------------------------------------------|
G|-------------------------------------------------------------------------|
D|-------------------------------------------------------------------------|
A|-------------------------------------------------------------12-14-14-15-|
E|--3-1-3-3b-1-1-1-1-3-3-3-5-5-5-7-7-8-8-10-10-12-12-12-12b-10-------------|

e|-------------------------------------------------------------------------|
B|-------------------------------------------------------------------------|
G|-------------------12-12------12b-12-------------------------------------|
D|-----12-12-15--15---------15----------15--12---14-15-15-15--14--14-------|
A|--15---------------------------------------------------------------------|
E|-------------------------------------------------------------------------|

e|-------------------------------------------------------------------------|
B|-------------------------------------------------------------------------|
G|-------------------------------------------------------------------------|
D|--12-12-12-12-12-12-14-15-15-14-15-14-12-12--12/14--14-14\12-12\10-------|
A|-------------------------------------------------------------------------|
E|-------------------------------------------------------------------------|

e|-------------------|
B|-------------------|
G|-------------------|
D|-------------------|
A|--10\9-9\7-7\5-5---|
E|-------------------|

e|--------------------3-33-33-------------3-33-33-------------3-33-33---|
B|3-33-33-------------3-33-33-------------3-33-33-------------3-33-33---|
G|2-22-22---3-33-33---0-00-00---3-33-33---0-00-00---3-33-33---0-00-00---|
D|0-00-00-0-3-33-33-0-0-00-00-0-3-33-33-0-0-00-00-0-3-33-33-0-0-00-00---|
A|0-00-00-0-1-11-11-0-x-xx-xx-0-1-11-11-0-x-xx-xx-0-1-11-11-0-x-xx-xx---|
E|--------------------3-33-33-------------3-33-33-------------3-33-33---|

e|--------------|
B|--------------|
G|--3-33-33---2-|
D|--3-33-33-0-2-|
A|--1-11-11-0-0-|
E|--------------|

e|-----------------333------------------------|
B|--3-33-33--------333------------------------|
G|--2-22-22---33---000---2-22-22---33---555---|
D|--0-00-00-0-33-0-000-0-2-22-22-0-33-0-555-0-|
A|--0-00-00-0-11-0-xxx-0-0-00-00-0-11-0-333-0-|
E|-----------------333------------------------|

e|--------------------3-33-33-------------3-33-33-------------3-33-33---|
B|3-33-33-------------3-33-33-------------3-33-33-------------3-33-33---|
G|2-22-22---3-33-33---0-00-00---3-33-33---0-00-00---3-33-33---0-00-00---|
D|0-00-00-0-3-33-33-0-0-00-00-0-3-33-33-0-0-00-00-0-3-33-33-0-0-00-00---|
A|0-00-00-0-1-11-11-0-x-xx-xx-0-1-11-11-0-x-xx-xx-0-1-11-11-0-x-xx-xx---|
E|--------------------3-33-33-------------3-33-33-------------3-33-33---|

e|----------3-33-33-------------|
B|----------3-33-33-------------|
G|--3-33-33-0-00-00-3-33-33---2-|
D|--3-33-33-0-00-00-3-33-33-0-2-|
A|--1-11-11-x-xx-xx-1-11-11-0-0-|
E|----------3-33-33-------------|end
Suggest correction
comments
print report bad tab
3 comments total.
0 reply
ERNZOA 10 Nov 12, 2005 08:21 AM

great tab, much better than the others I've seen

-1 reply
buckeytyme 10 Apr 19, 2006 09:48 PM

solo is way off but the rest is great, good job

+1 reply
Rockspider333 10 Feb 26, 2009 04:45 PM

tuned a half step down

guest
You may want to rate the tab now too:
select rating
Wanna post a correction for this tab? Suggest correction