Oops, an error
Loading. Please wait.

Sappy Tab

version 6
version 6
17,602 views 48 this week
5 commentsread comments
1 2 3 4 5
excellent!
x 13
add to favorites
launch autoscroll
font size
0
reset
how to read this tab
guitar tuner
Autoscroll
slow
fast
+/-
esc
set tempo
stop
Help us to improve Ultimate-Guitar.com Take our survey!
×
Author
-------------------------------------------------------------------------------
                             Sappy - Nirvana
-------------------------------------------------------------------------------
Tabbed by: Mr.Rymy
Email: rymylys@hotmail.com

Tuning: Standard

1.  Live intro
1.1 Live intro II
2.  Sappy (AKA Verse Chorus Verse)
2.1 Alternative way to play Sappy (AKA Verse Chorus Verse)
2.2 Sappy [1990 Studio Demo]




1. Live intro

e|---------------------------------------------------------------------------|
B|--3--3-3--3-3----------------3--3-3--3-3-----------------------------------|
G|--2--2-2--2-2-0-3---3--3-3-0-2--2-2--2-2-0-3--3-3--3-3-0-------------------|
D|--0--0-0--0-0-0-3---3--3-3-0-0--0-0--0-0-0-3--3-3--3-3-0-------------------|
A|----------------1---1--1-1-----------------1--1-1--1-1---------------------|
E|---------------------------------------------------------------------------|
    Repeat several times

e|---------------------------------------------------------------------------|
B|--3--3-3--3-3--------------------------------------------------------------|
G|--2--2-2--2-2-0-3--3-3--3-3-0----------------------------------------------|
D|--0--0-0--0-0-0-3--3-3--3-3-0----------------------------------------------|
A|----------------1--1-1--1-1------------------------------------------------|
E|---------------------------------------------------------------------------|
    Repeat few times




1.1 Live intro II

e|------------------------------|--------------------------------------------|
B|-----3------3-----------------|--------------------------------------------|
G|--2--2-2------0----3------3---|-2--2-2--2-2-2/3--3/5--5-5-0----------------|
D|--0----0--0-----3--3-3------0-|---------------------------0----------------|
A|----------------1----1--1-----|--------------------------------------------|
E|------------------------------|--------------------------------------------|
    Repeat several times




Sappy (AKA Verse Chorus Verse)

Verse
e|---------------------------------------------------------------------------|
B|--3--3-3--3-3--------------------------------------------------------------|
G|--2--2-2--2-2-0-3--3--------0-2--2-2--2-2-0-3--3-5--5-5-0------------------|
D|--0--0-0--0-0-0-3--3-5--5-5-0-2--2-2--2-2-0-3--3-5--5-5-0------------------|
A|----------------1--1-5--5-5---0--0-0--0-0---1--1-3--3-3--------------------|
E|---------------------3--3-3------------------------------------------------|

Chorus
e|----------------|------------------------------|---------------------------|
B|--3--3-3--3-3---|------------------------------|---------------------------|
G|--2--2-2--2-2-0-|-3--3-3--3-3-0--------------0-|-3--3-3--3-3-0-2-----------|
D|--0--0-0--0-0-0-|-3--3-3--3-3-0-5--5-5-5-5-5-0-|-3--3-3--3-3-0-2-----------|
A|----------------|-1--1-1--1-1---5--5-5-5-5-5---|-1--1-1--1-1---0-----------|
E|----------------|---------------3--3-3-3-3-3---|---------------------------|
                    3x                                           Let ring...

Solo
e|---------------------------------------------------------------------------|
B|---------------------------------------------------------------------------|
G|---------------------------------------------------------------------------|
D|---------------------9-9-11-11-11-10-10-10-10-10b-10-8-10-10b-10b-10-------|
A|-------7-9/11--9-11--------------------------------------------------------|
E|--7/9----------------------------------------------------------------6-7-7-|

e|---------------------------------------------------------------------------|
B|---------------------------------------------------------------------------|
G|---------------------------------------------------------------------------|
D|---------------------------------------------------------------------------|
A|-----------------------------------------------------------------11/13-13--|
E|--6-\4-2-2-0-2-2b-0-0-0-0-2-2-2/4-4-4/6-6/7-7/9-9/11-11-11-11b-9-----------|

e|---------------------------------------------------------------------------|
B|---------------------------------------------------------------------------|
G|----------------------11-11------11b-11------------------------------------|
D|--------11-11-14--14---------14----------14--11---13-14-14-14--13—13-11-11-|
A|--14-14--------------------------------------------------------------------|
E|---------------------------------------------------------------------------|

e|---------------------------------------------------------------------------|
B|---------------------------------------------------------------------------|
G|---------------------------------------------------------------------------|
D|--11-11-11-11-13-14-14-13-14-13-11-11—11-13--13-13-11-11-9-----------------|
A|------------------------------------------------------------9\8-8\6-6\4-4--|
E|---------------------------------------------------------------------------|




2.1 Alternative way to play Sappy (AKA Verse Chorus Verse)

e|---------------------------------------------------------------------------|
B|---------------------------------------------------------------------------|
G|--7--7-7--7-7-0-------------0-------------0----------------0---------------|
D|--7--7-7--7-7-0-8--8\5--5-5-0-7--7-7--7-7-0-8--8/10--10-10-0---------------|
A|--5--5-5--5-5---8--8\5--5-5---7--7-7--7-7---8--8/10--10-10-----------------|
E|----------------6--6\3--3-3---5--5-5--5-5---6--6/-8---8--8-----------------|

Chorus
e|----------------|------------------------------|---------------------------|
B|----------------|------------------------------|---------------------------|
G|--7--7-7--7-7-0-|-------------0--------------0-|-------------0-7-----------|
D|--7--7-7--7-7-0-|-8--8-8--8-8-0-5--5-5-5-5-5-0-|-8--8-8--8-8-0-7-----------|
A|--5--5-5--5-5---|-8--8-8--8-8---5--5-5-5-5-5---|-8--8-8--8-8---------------|
E|----------------|-6--6-6--6-6---3--3-3-3-3-3---|-6--6-6--6-6---------------|
                    3x                                           Let ring…



2.2 Sappy [1990 Studio Demo]

e|---------------------------------------------------------------------------|
B|--3--3-3-3-3-3-------------------------------------------------------------|
G|--2--2-2-2-2-2-0-3--3---------0-2--2-2-2-2-2-0-3--3-5-5-5-5-0--------------|
D|--0--0-0-0-0-0-0-3--3-5-5-5-5-0-2--2-2-2-2-2-0-3--3-5-5-5-5-0--------------|
A|-----------------1--1-5-5-5-5---0--0-0-0-0-0---1--1-3-3-3-3----------------|
E|----------------------3-3-3-3----------------------------------------------|

e|-----------------|-------------------------------|-------------------------|
B|--3--3-3-3-3-3---|-------------------------------|-------------------------|
G|--2--2-2-2-2-2-0-|-3--3-3-3-3-3-0--------------0-|-3--3-3-3-3-3-0-2--------|
D|--0--0-0-0-0-0-0-|-3--3-3-3-3-3-0-5--5-5-5-5-5-0-|-3--3-3-3-3-3-0-2--------|
A|-----------------|-1--1-1-1-1-1---5--5-5-5-5-5---|-1--1-1-1-1-1---0--------|
E|-----------------|----------------3--3-3-3-3-3---|-------------------------|
                     3x                                             Let ring...

| /  slide up
| \  slide down
| h  hammer-on
| p  pull-off
| ~  vibrato
| +  harmonic
| x  Mute note
| b  Bend
===============================================================================
Suggest correction
comments
print report bad tab
5 comments total. Showing first comments.
0 reply
Teen Spirit 656 wrote on April 24 2009, 11:21 am

ANOTHER boss tab. Dude you're like my favorite tabber. Good work man 5 stars AGAIN. :D

0 reply
Mr.Rymy 111 wrote on April 24 2009, 11:43 am

Thank you very much :).

0 reply
HeroinStarBox 10 wrote on October 12 2011, 05:40 pm

It's good, but the solo seems to be tabbed half a step up from the verses?

guest
You may want to rate the tab now too:
select rating
Wanna post a correction for this tab? Suggest correction