Oops, an error
Loading. Please wait.

School Bass Tab

version 1
version 1

Whole song

Interactive

24,439 views 63 this week
3 commentsread comments
1 2 3 4 5
x 15
add to favorites
launch autoscroll
font size
0
reset
guitar tuner
Autoscroll
slow
fast
+/-
esc
set tempo
stop
Help us to improve Ultimate-Guitar.com Take our survey!
×
Nirvana
School
Tabbed by:Eric Hutchison

G|-------------------------------|
D|-------------------------------|
A|-------------------------------|
E|-0--0-0-5^--0-5^-0-5^-0-0-5^^--|

 [Fill] Before [Chorus]
G|-------------------------------|
D|-------------------------------|
A|-------------------------------|
E|-0--0-0-5^--0-5^-0-5^-0-0-0-0--|

 [Chorus]
G|-------------------------------------|-----------------------|
D|-------------------------------------|-----------------------|
A|-3--3--3-3---------7--7--7-7--5-5-5-5|3--3--3-3--------------|
E|-----------5-5-5-5-------------------|----------5-5-5-5--5-5-|
Suggest correction
comments
print report bad tab
3 comments total.
+1 reply
thrillhouse11 10 Jul 04, 2012 08:25 AM

apart from the verse, 'fill before chorus' and chorus being wrong, you got it completely right. well done

0 reply
theawesomeginge 134 Jan 09, 2014 03:09 PM

what about the massive solo??!? from about 1:20-1:50.

0 reply
alvaro-muro 10 Feb 02, 2015 11:33 PM

there is no bass solo

guest
You may want to rate the tab now too:
select rating
Wanna post a correction for this tab? Suggest correction