Oops, an error
Loading. Please wait.

School Live Tab

1,621 views 3 this week
8 commentsread comments
1 2 3 4 5
worth learning
x 6
add to favorites
launch autoscroll
font size
0
reset
how to read this tab
guitar tuner
Tab Pro tools
  • play this tab
  • loop segment
  • change instrument
  • show fretboard
  • metronome
Autoscroll
slow
fast
+/-
esc
set tempo
stop
Contributor
Intro-   (All bends are half-bends)

-----|--------------------------------------------------------------------------|
-----|--------------------------------------------------------------------------|
-----|--------------------------------------------------------------------------|
-----|--------------------------------------------------------------------------|
-----|--------------------------------------------------------------------------|
--0--|--0--0-0-5^--0-0-5^--0-0-0-0-0-0-5^---0--0-0-5^--0-0-5^--0-0-0-0-0-0-5^---|
X4

Verse
-------------------------------------------------------------------------|
-------------------------------------------------------------------------|
-------------------------------------------------------------------------|
-------------------------------------------------------------------------|
-------------------------------------------------------------------------|
--0--0-0-5^--0-0-5^--0-0-0-0-0-0-5^---0--0-0-5^--0-0-5^--0-0-0-0-0-0-5^--|

-------------------------------------------------------------------------|
-------------------------------------------------------------------------|
-------------------------------------------------------------------------|
-------------------------------------------------------------------------|
-------------------------------------------------------------------------|
--0--0-0-5^--0-0-5^--0-0-0-0-0-0-5^---0--0-0-5^--0-0-5^--0-0-0-0-0-0--0--|

Chorus
---------------------------------------------------------------------------------------|
--5--5-5--5-5-5------------------------------------------5--5-5-5-5-5------------------|
--5--5-5--5-5-5-2-2--2--2-2-------------------2--2--2-2--5--5-5-5-5-5-2--2-2--2-2--2-2-|
--5--5-5--5-5-5-2-2--2--2-2--2--2-2--2-2-2-2--2--2--2-2--5--5-5-5-5-5-2--2-2--2-2--2-2-|
--3--3-3--3-3-3-0-0--0--0-0--2--2-2--2-2-2-2--0--0--0-0--3--3-3-3-3-3-0--0-0--0-0--0-0-|
-----------------------------0--0-0--0-0-0-0-------------------------------------------|

Interlude
-------------------------------------------------------------------------|
-------------------------------------------------------------------------|
-------------------------------------------------------------------------|
-------------------------------------------------------------------------|
-------------------------------------------------------------------------|
--0--0-0-5^--0-0-5^--0-0-0-0-0-0-5^---0--0-0-5^--0-0-5^--0-0-0-0-0-0-5^--|

Verse
-------------------------------------------------------------------------|
-------------------------------------------------------------------------|
-------------------------------------------------------------------------|
-------------------------------------------------------------------------|
-------------------------------------------------------------------------|
--0--0-0-5^--0-0-5^--0-0-0-0-0-0-5^---0--0-0-5^--0-0-5^--0-0-0-0-0-0-5^--|

-------------------------------------------------------------------------|
-------------------------------------------------------------------------|
-------------------------------------------------------------------------|
-------------------------------------------------------------------------|
-------------------------------------------------------------------------|
--0--0-0-5^--0-0-5^--0-0-0-0-0-0-5^---0--0-0-5^--0-0-5^--0-0-0-0-0-0--0--|

Chorus
---------------------------------------------------------------------------------------|
--5--5-5--5-5-5------------------------------------------5--5-5-5-5-5------------------|
--5--5-5--5-5-5-2-2--2--2-2-------------------2--2--2-2--5--5-5-5-5-5-2--2-2--2-2--2-2-|
--5--5-5--5-5-5-2-2--2--2-2--2--2-2--2-2-2-2--2--2--2-2--5--5-5-5-5-5-2--2-2--2-2--2-2-|
--3--3-3--3-3-3-0-0--0--0-0--2--2-2--2-2-2-2--0--0--0-0--3--3-3-3-3-3-0--0-0--0-0--0-0-|
-----------------------------0--0-0--0-0-0-0-------------------------------------------|

Solo
-------------------------------11-11---------------------------------------11----------|
-------------------------------10-10---------------------------------------10----------|
---------------------------------------------------------------------------------------|
---------8-9-10-11-11-11-11-11---------------------11-11-11-11----11----11-------------|
--0--0-0-7-8--9-10-10-10-10-10----------------0--0-10-10-10-10-10----10----------------|
--0--0-0-----------------------------0--0--0--0--0-----------------------------0--0--0-|

-------------------------------------------------------------------------------------|
------------------------------------------------------------------------2^--0--2^--0-|
--10-10-10-10-11-11--12-12-12-14-14-14-----14-14-14-12--12-12-12-12-12--2^--0--2^--0-|
---9--9--9--9-10-10--11-11-11-13-13-13-----13-13-13-11--11-11-11-11-11---------------|
---8--8--8--8--9--9--10-10-10-12-12-12-----12-12-12-10--10-10-10-10-10---------------|
----------------------------------------0--------------------------------------------|

-------------------------------------------------------------------------------|
-2^--0--2^---------------------------------------------------------------------|
-2^--0--2^-2-0-----------------------------------------------------------------|
-----------2-0---------0--7-7-7/12-12~-12-12h14-14h12-14-12-14~-14-0-14-0-0-14~|
-----------------------0--7-7-7------------------------------------------------|
-----------------3^------------------------------------------------------------|

-------------------------------------------------------------------------------------|
-----------------------------14-14---------------------------------------------------|
-----------------12-12-12h14-14-14-14^--14-14-12-14-12---14-12-14^--14-0-14-0-12-14^-|
-X-12-14-14-0-14---------------------------------------------------------------------|
-------------------------------------------------------------------------------------|
-------------------------------------------------------------------------------------|

---------------------------------------------------------------------|
----------------------------------0--0-------------------------------|
-14-14-12-14-12-14-12-14^-14^--14-0--0---------14-14-12--------------|
----------------------------------0--0--12--14-14-14-14-14-14-14-14~-|
---------------------------------------------------------------------|
---------------------------------------------------------------------|

---------------------------------------------------------|
---------------------------------------------------------|
---------------------------------------------------------|
--14-12--12--12-11--11--11-9--9-7--7-6--7^~~-------------|
---------------------------------------------------------|
------------------------------------------------15\\-----|


Outro-Chorus
---------------------------------------------------------------------------------------|
--5--5-5--5-5-5------------------------------------------5--5-5-5-5-5------------------|
--5--5-5--5-5-5-2-2--2--2-2-------------------2--2--2-2--5--5-5-5-5-5-2--2-2--2-2--2-2-|
--5--5-5--5-5-5-2-2--2--2-2--2--2-2--2-2-2-2--2--2--2-2--5--5-5-5-5-5-2--2-2--2-2--2-2-|
--3--3-3--3-3-3-0-0--0--0-0--2--2-2--2-2-2-2--0--0--0-0--3--3-3-3-3-3-0--0-0--0-0--0-0-|
-----------------------------0--0-0--0-0-0-0-------------------------------------------|

---------------------------------------------------------------------------------------|
--5--5-5--5-5-5------------------------------------------5--5-5-5-5-5------------------|
--5--5-5--5-5-5-2-2--2--2-2-------------------2--2--2-2--5--5-5-5-5-5-2--2-2--2-2--2-2-|
--5--5-5--5-5-5-2-2--2--2-2--2--2-2--2-2-2-2--2--2--2-2--5--5-5-5-5-5-2--2-2--2-2--2-2-|
--3--3-3--3-3-3-0-0--0--0-0--2--2-2--2-2-2-2--0--0--0-0--3--3-3-3-3-3-0--0-0--0-0--0-0-|
-----------------------------0--0-0--0-0-0-0-------------------------------------------|

---------------------------------------------------------------------------------------|
--5--5-5--5-5-5------------------------------------------5--5-5-5-5-5------------------|
--5--5-5--5-5-5-2-2--2--2-2-------------------2--2--2-2--5--5-5-5-5-5-2--2-2--2-2--2-2-|
--5--5-5--5-5-5-2-2--2--2-2--2--2-2--2-2-2-2--2--2--2-2--5--5-5-5-5-5-2--2-2--2-2--2-2-|
--3--3-3--3-3-3-0-0--0--0-0--2--2-2--2-2-2-2--0--0--0-0--3--3-3-3-3-3-0--0-0--0-0--0-0-|
-----------------------------0--0-0--0-0-0-0-------------------------------------------|

---------------------------|
---------------------------|
--5--5-5--5-5-X-X-2--2-2-2-|
--5--5-5--5-5-X-X-2--2-2-2-|
--3--3-3--3-3-X-X-0--0-0-0-|
---------------------------|
comments
print report bad tab
8 comments total. Showing first comments.
0 reply
Cobainliveson wrote on February 2 2005, 12:00 am

Hey, you took my tab off of mxtabs.net. Tab out your own songs!

0 reply
Cobainliveson wrote on February 2 2005, 12:00 am

Cobainliveson182<---my sn on mxtabs.net...check me out, the real tabber of this song!

0 reply
Cobainliveson wrote on February 2 2005, 12:00 am

Ya i gave you a 1 for this tab...u stole my tab! U deserve a 1!

I want to post or [tab]
guest
You may want to rate the tab now too:
select rating
Please do not post tabs as comments. Select "correction" instead!