Oops, an error
Loading. Please wait.

School Tab

version 3
version 3

Whole song

Interactive

10,072 views 3 this week
3 commentsread comments
1 2 3 4 5
x 8
add to favorites
launch autoscroll
font size
0
reset
how to read this tab
guitar tuner
Autoscroll
slow
fast
+/-
esc
set tempo
stop
Help us to improve Ultimate-Guitar.com Take our survey!
×
Author
KEY: b = Bend
     ~ = vibrato
    PM = Palm Mute
     / = Slide Up
     \ = Slide Down
     r = Release Bend
     h = Hammer-On
     p = Pull-Off


Main Riff Fig.1
1-|-------------------------------------|
2-|-------------------------------------|
3-|-------------------------------------|
4-|-------------------------------------|
5-|-------------------------------------|
6-|-0--0-0-5b7-0-0-5b7-0-0-0-0-0-0-5b7~-|


Chorus Fig.2
1-|---------------------------------------------------
2-|---------------------------------------------------
3-|-5--5-5--5-5------------------9-9--9-9-------------
4-|-5--5-5--5-5---------------9--9-9--9-9---7-7--7--7-
5-|-3--3-3--3-3-7-7-7-7-7--7--7--7-7--7-7-0-5-5--5--5-
6-|-------------5-5-5-5-5--5--------------------------
                PM. . . 

--------------------------|
--------------------------|
-5--5-5--5-5--------------|
-5--5-5--5-5--------------|
-3--3-3--3-3-7-7-7-7-7--7-|
-------------5-5-5-5-5--5-|
             PM. . . 


Guitar Solo Fig.3
1-|------------------------------------------------------------
2-|-------------------------15-15-15--------12-12----12--12-12-
3-|---------------12-----12-13-13-13--------11-11----12--12-12-
4-|--------11-11--11--11-11-----------------11-11----11--11-11-
5-|--------10-10----------------------------------11-----------
6-|-0--0-0---------------------------0--0-0--------------------

-14-14-14--------7-7---7--7-7--14-14---------------------------
-14-14-14--------7-7---8--8-8--14-14-----------------12--12-12-
-12-12-12--------6-6---6--6-6--12-12-----------------12--12-12-
---------------------6----------------------11-11----11--11-11-
--------------------------------------------10-10-11-----------
----------0--0-0---------------------0--0-0--------------------

---------------------------------------------------------------
------2b3-2b3r2---2b3r2--------------------------------------7-
------2b3-2b3r2-0-2b3r2-0-------------2b4-0-2b4r2-0-2/7--7-7-7-
--------------------------2-0-2--------------------------------
---------------------------------------------------------------
-/19\---------------------------3\-0---------------------------

---------------------------------------------------------------
-------0-------------------------------------------------------
-7h9-9---9p7p0-2--2-2-2-2-2~------0-2-0-0-2b3--0-------------2-
------------------------------0-0----------------2-------2-5---
---------------------------------------------------5p0-5-------
---------------------------------------------------------------

--------------------------------------10b11-10-10p9p7----7-
------------------11-8----8h10-10b12------------------10---
---2/7-7--7-7-9-7-------0----------------------------------
-5---------------------------------------------------------
-----------------------------------------------------------
-----------------------------------------------------------

--------------------------------------------------------------|
-10b12--10-10p8-----------------------------------------------|
----------------9-7-7-9-7-9-9-9~--9-7-7-7\6-6-6\4-4-2-2p0-2~-\|
--------------------------------------------------------------|
--------------------------------------------------------------|
--------------------------------------------------------------|


Fig.4
Last 4 bars of the "You're in my school again" bit
1-|-----|----|-----|-------|
2-|-----|----|-----|-------|
3-|-----|----|-----|-------|
4-|-----|----|-----|-------|
5-|-----|----|-----|---2-2-|
6-|-0---|----|-0---|---0-0-|
         feedback


Final Chorus Fig.5
1-|---------------------------------------------------|
2-|---------------------------------------------------|
3-|-5--5-5--5-5------------------9-9--9-9-------------|
4-|-5--5-5--5-5---------------9--9-9--9-9---7-7--7--7-|
5-|-3--3-3--3-3-7-7-7-7-7--7--7--7-7--7-7-0-5-5--5--5-| x3
6-|-------------5-5-5-5-5--5--------------------------|
                PM. . . 

|--------------------------|
|--------------------------|
|-5--5-5--5-5--------------|
|-5--5-5--5-5--------------|
|-3--3-3--3-3-7-7-7-7-7--7-|
|-------------5-5-5-5-5--5-|
              PM. . .
Suggest correction
comments
print report bad tab
3 comments total.
0 reply
Rockspider333 10 Jul 14, 2009 12:36 PM

Chorus Fig.2
1-|---------------------------------------------------
2-|---------------------------------------------------
3-|-5--5-5--5-5------------------9-9--9-9-------------
4-|-5--5-5--5-5---------------9--9-9--9-9---7-7--7--7-
5-|-3--3-3--3-3-7-7-7-7-7--7--7--7-7--7-7-0-5-5--5--5-
6-|-------------5-5-5-5-5--5--------------------------
PM. . .

--------------------------|
--------------------------|
-5--5-5--5-5--------------|
-5--5-5--5-5--------------|
-3--3-3--3-3-7-7-7-7-7--7-|
-------------5-5-5-5-5--5-|
PM. . .

that should be this:

Chorus Fig.2
1-|------------------------------------0-----------------------
2-|------------------------------------0-----------------------
3-|-5--5-5--5-5----------------------x-x-----------------------
4-|-5--5-5--5-5----------------0--2--2-2--2-2--7-7-7-7-7-7-7-0-
5-|-3--3-3--3-3--7-7-7-7-7-7-7-0--2--2-2--2-2--5-5-5-5-5-5-5-0-
6-|--------------5-5-5-5-5-5-5----0--0-0--0-0------------------
PM. . .

---------------------------|
---------------------------|
-5--5-5--5-5---------------|
-5--5-5--5-5---------------|
-3--3-3--3-3-7-7-7-7-7-7-7-|
-------------5-5-5-5-5-5-5-|
PM. . .

0 reply
Rockspider333 10 Jul 14, 2009 12:39 PM

Anyways you got my 5/5!
I don't know why it's a 3-Star Tab...
My PM's got messed up, well they always do...
anyways, you always PM the A5 chord.

0 reply
Tim|Timmer 10 Feb 13, 2012 06:29 PM

it's your in high school again

guest
You may want to rate the tab now too:
select rating
Wanna post a correction for this tab? Suggest correction