Oops, an error
Loading. Please wait.

Seasons In The Sun Tab

version 4
version 4

Whole song

Interactive

30,562 views 54 this week
4 commentsread comments
1 2 3 4 5
excellent!
x 8
add to favorites
launch autoscroll
font size
0
reset
how to read this tab
guitar tuner
Autoscroll
slow
fast
+/-
esc
set tempo
stop
Help us to improve Ultimate-Guitar.com Take our survey!
×
Difficulty
intermediate
Intro:

e|-------------|
B|---------7---|
G|---------7---|
D|---------7---| x2
A|-4-4-4/5-5---|
E|-------------|

Verse:

e|-------------------------------------------------------------|
B|--------7--------------7--------------9--------------9-------|
G|------7---7----------7---7----------9---9----------9---9-----|
D|----7-------7------7-------7------9-------9------9-------9---|
A|--5-----------5--5-----------5--7-----------7--7-----------7-|
E|-------------------------------------------------------------|
...die               when....     in the sky.    and all....

e|-------------------------------------------------------------|
B|--------7--------------7--------------9--------------2-------|
G|------7---7----------7---7----------9---9----------2---2-----|
D|----7-------7------7-------7------9-------9------2-------2---|
A|--5-----------5--5-----------5--7-----------7--0-----------0-|
E|-------------------------------------------------------------|
 ...where.           pretty.......where...           think...

e|--------------------|
B|--------7---------7-|
G|------7---7-------7-|
D|----7-------7-----7-|
A|--5-----------5---5-|
E|--------------------|
    there. 

Play intro ONE TIME then back to verse.

Pre-chorus:  

e|----------------|
B|--------7-------|
G|------7---7-----|
D|----7-------7---|
A|--5-----------5-|
E|----------------|

1st chorus:

e|-------------------------------------------------------|
B|--------7--------------9--------------2----------------|
G|------7---7----------9---9----------2---2--------------|
D|----7-------7------9-------9------2-------2------------|
A|--5-----------5--7-----------7--0-----------0--0-0-2-4-|
E|-------------------------------------------------------|
...joy...       ...seasons...     hills...


e|--------------------------------|
B|--------7--------------7--------|
G|------7---7----------7---7------|
D|----7-------7------7-------7----|  play chorus 2x
A|--5-----------5--5-----------5--|
E|--------------------------------|
 ...time

2nd chorus:

e|-------------------------------------------------------|
B|--------7--------------9--------------2----------------|
G|------7---7----------9---9----------2---2--------------|
D|----7-------7------9-------9------2-------2------------|
A|--5-----------5--7-----------7--0-----------0--0-0-2-4-|
E|-------------------------------------------------------|

e|-------------------------------|
B|--------7--------------7-------|
G|------7---7----------7---7-----|
D|----7-------7------7-------7---|  
A|--5-----------5--5-----------5-|
E|-------------------------------|

e|-------------------------------------------------------|
B|--------7--------------9--------------2----------------|
G|------7---7----------9---9----------2---2--------------|
D|----7-------7------9-------9------2-------2------------|
A|--5-----------5--7-----------7--0-----------0--0-0-2-4-|
E|-------------------------------------------------------|

e|---------------------------------|
B|--------7------------------------|
G|------7---7------7-7-7-7-7-7-7-7-|
D|----7-------7--------------------|  
A|--5-----------5------------------|
E|---------------------------------|


e|-----------------------------------------------------------|
B|--------8----------------10---------------3----------------|
G|------8---8-----------10----10----------3---3--------------|
D|----8-------8------10---------10------3-------3------------|
A|--6-----------6--8---------------8--1-----------1--1-1-3-5-|
E|-----------------------------------------------------------|

e|--------------------------------|
B|--------8--------------8--------|
G|------8---8----------8---8------|
D|----8-------8------8-------8----|  
A|--6-----------6--6-----------6--|
E|--------------------------------|

e|------------------------------------------------------------|
B|--------8----------------10---------------3-----------------|
G|------8---8-----------10----10----------3---3---------------|
D|----8-------8------10---------10------3-------3-------------|
A|--6-----------6--8---------------8--1-----------1--1-1-3-5-6|
E|------------------------------------------------------------|

Ending:

e|--------|
B|--7--8--|
G|--7--8--|
D|--7--8--|  
A|--5--6--|
E|--------|


Lyrics:
goodbye my friend, it's hard to die
when all the birds are singing in the sky
and all the flowers are everywhere
pretty girls are everywhere
"Think of me and i'll be there."

goodbye, papa, please pray for me
i was the black sheep of the family
"I don't know all these words
I have bought three turds
With my BB-gun I would kill birds"

we had joy, we had fun, we had seasons in the sun
but the hills that we climbed
were just seasons out of time

All our lives, we had fun, we had seasons in the sun
But the stars that we reached were just starfish on the beach.

goodbye, michelle, my little one
"I was the apple of the shining sun.
And I have loved you every week
All my tears are salty
I think that now I will start to leave"

We had joy, we had fun, we had seasons in the sun
But the hills that we climbed
Were just seasons out of time

We had joy, we had fun, we had seasons in the sun
But the stars that we reached were just starfish on the beach.

We had joy, we had fun, we had seasons in the sun
But the hills that we climbed
Were just seasons out of time

We had joy, we had fun, we had seasons in the sun
But the stars that we reached where just starfish on the beach.
  
Suggest correction
comments
print report bad tab
4 comments total. Showing first comments.
0 reply
Hathor1508 10 wrote on February 28 2012, 06:30 pm

This tab is perfect, will-typed and formatted, and you even included accurate lyrics. Thanks for doing a good job tabbing one of my favorite Nirvana songs.

0 reply
Loucksg 268 wrote on February 22 2014, 10:40 pm

Nice job, love this song!

0 reply
prietomaxwell 10 wrote on June 23 2014, 09:39 pm

Really accurate tab, but it sounds a semi-tone too high. Try changing the tuning down to Eb, but keep the tab the way it is. Other than that, it's perfect. Happy playing.

guest
You may want to rate the tab now too:
select rating
Wanna post a correction for this tab? Suggest correction