Oops, an error
Loading. Please wait.

Serve The Servants Bass Tab

version 1
version 1

Whole song

Interactive

13,443 views 6 this week
3 commentsread comments
1 2 3 4 5
1 last vote to show rating
add to favorites
launch autoscroll
font size
0
reset
guitar tuner
Autoscroll
slow
fast
+/-
esc
set tempo
stop
Help us to improve Ultimate-Guitar.com Take our survey!
×
Song Title: Serve Servants
Artist: Nirvana
----------------------------------------------

This is what I think about the Bass Tab. The other posted there sounds weird
even when you tune it to the song. So I had to make few corrections.

VERSE:
|------------------------------------------------------------------------------|
|-------------------------------------------5-------4---2---4------------------|
|---7-------------------5---7-7-7---5---7---------------------------7--5---7---|
|-------7-7-7---5---7---------------------------2---------------0--------------|

CHORUS: Serve the servants...
|-------------------------------------|
|-------------------------------------|
|-----------------4-4-4---3---2---1---|
|---5-5---4---5-----------------------|

That legendary divorce....
|-----------------------13---|
|-----------------------12---|
|----------------------------|
|---2-2-2-2---3-3-3-3--------|

If you have any problems...oh well..

Submitted by:  Eric Z ()


Suggest correction
Give kudos to tab author, rate the tab!
1 2 3 4 5
comments
print report bad tab
3 comments total.
0 reply
darthwolf 10 Sep 28, 2010 08:44 AM

what is the tunning for this song

+1 reply
stocky93 10 Nov 12, 2011 06:43 AM

after watching some videos of live shows i noticed krist never moves his hand away from the very end of the neck throughout the verses, so this is very likely how he actually played it. most of this is the same as the one above except for the hammer ons and what not.

Intro/Verses/Solo (Alternate Reps)
G-------------------------------------------------------------------------|
D---------------0-2~--2-2--0-2-0----------1h2p1--0------------------------|
A---2~-2-2--0-2-----------------------------------------------------------|
E---------------------------------2~-2-2---------------0~-0-0---1h2p1--0--|

G-------------------------------------------------------------------------|
D---------------0-2~--2-2--0-2-0----------1h2p1--0------------------------|
A---2~-2-2--0-2-----------------------------------------------------------|
E---------------------------------2~-2-2---------------0~-0-0--1-0--1-0---|

Chorus
G------------------------------------------------------------------|
D------------------------------------------------------------------|
A---------------2-3~-3-3---3-3-3----------5h6p5-4--3~-3-3--3-3-3---|
E---5~-5-5--3-5--------------------5~-5-5--------------------------|

End of Chorus
G----------------------------------------------|
D----------------------------------------------|
A----------------------------------------------|
E---2-2-2-2--2-2-2-2--4-4-4-4--4-4-4-4--/--12--|

0 reply
stocky93 10 Nov 12, 2011 06:47 AM

make that ---0~-0-0--2-0-2-0-- at the end of the verses. my bad

guest
You may want to rate the tab now too:
select rating
Wanna post a correction for this tab? Suggest correction