Oops, an error
Loading. Please wait.
We have an official Serve The Servants tab made by UG professional guitarists. Check out the tab »
×
by Nirvana
22,474 views 54 this week
4 commentsread comments
1 2 3 4 5
x 11
add to favorites
launch autoscroll
font size
0
reset
how to read this tab
guitar tuner
backing track
0:00
0:00
Autoscroll
slow
fast
+/-
esc
set tempo
stop
Author
Tuning
D# G# C# F# A# D#
Nirvana
Serve the Servants
In Utero
1994

This is not really that hard to play as long as you know the song pretty well.
This took me forever so give me a break if its not-100%
Give this a rating so I can know what you think please.

Kdog7301@comcast.net is my address


Tune down half step

[Intro]

Eb-------------0-------14------------9-------------|
Bb------------14------------14------9--------------|
Gb-----------13-----------------------9------------|
Db----------12-------------------------------------|
Ab---------11--------------------------------------|
Eb--------0----------------------------------------|

Eb--------------------------------------------------------------------------------------------------------|
Bb------------------------------------------------------------3-------------------------------------------|
Gb-----------------2------------2--------------------------------------------------------3----------------|
Db-------------1---------------------0--------2---2--2--------------2--2-------------4--------------------|
Ab------2------------------2-------------------------------------------------------------4----------------|
Eb------------------------------------------------------------------------------0--------2----------------|

Eb-------------0-----0-------------------------------------0------0------------|
Bb-------------0-----0--------------------------------------0------0-----------|
Gb-----------------------------------------------------------------------------|
Db------------------------4/5---------------------------------------------2p0--|
Ab------------------------4/5-----------2--------------------------------2p0---|
Eb--------2------------------------------0----------0--------------------------|

Eb----------------------------------------------------------------------------------------|
Bb-------------------------------------------------------3--------------------------------|
Gb-----------------2---------2-------------------------------------------------------3----|
Db-------------1-----------------0-------2--2--2--------------2---2--------------4--------|
Ab------2--2------------2------------------------------------------------------------4----|
Eb-----------------------------------------------------------------------------0-------2--|

Eb--------------0---0---0----------------------------------------0----0---------------|
Bb--------------0---0---0----------------------------------------0----0---------------|
Gb------------------------------------------------------------------------------------|
Db-------------------------------4/5---------------------------------------------2p0--|
Ab-------------------------------4/5-------------2------------------------------2p0---|
Eb----------2-------------------------------------0-----0----0------------------------|

[Verse]

Eb------------------------------------------------------------------------------------------|
Bb-----------------0----------------------------------------------3-------------------------|
Gb----------------------2-------------2-----------------------------------------------------|
Db------------1---------------------------0--------2---2---2--------------2---2-------------|
Ab--------2----------------------2----------------------------------------------------------|
Eb---------------------------------------------------------------------------------------0--|
              Teenage angst    has         paid off      well

Eb---------------------------0--------0-------------------------------------------------0---0--------|
Bb---------------------------0--------0-------------------------------------------------0---0--------|
Gb---------------------------------------------------------------------------------------------------|
Db-----------4-----------------------------------4/5--------------------------------------------2p0--|
Ab-----------4-----------------------------------4/5----------------------2---------------------2p0--|
Eb-----------2-------2-----------------------------------------------------0----0--------------------|
              Now I’m      bored    and              old

Eb------------------------------------------------------------------------------------|
Bb------------0--------------------------------------------------3--------------------|
Gb---------------2--------------2-----------------------------------------------------|
Db-------1----------------------------0------2---2---2------------2-----2-------------|
Ab--2------------------------2--------------------------------------------------------|
Eb---------------------------------------------------------------------------------0--|
       Self   ap    point ed       judg  es      judge

Eb---------------------------0----------------------------------------0---0-------------|
Bb---------------------------0----------------------------------------0---0-------------|
Gb--------------------------------------------------------------------------------------|
Db-------4----------------------------4/5------------------------------------------2p0--|
Ab-------4----------------------------4/5--------------2--------------------------2p0---|
Eb-------2-----------2----------------------------------0---0---------------------------|
        More than        they      have sold

Eb---------------------------------------------------------------------------------------------|
Bb------------------------------------------------------------------------3--------------------|
Gb-------------------2--------------2----------------------------------------------------------|
Db-----------------------------------------0----------2----2-----2-----------2----2------------|
Ab-----2---2---2-------------2-----------------------------------------------------------------|
Eb------------------------------------------------------------------------------------------0--|
        If    she   floats      then    she               is    not

Eb--------------------0----0--------------------------------------0----0----------------|
Bb--------------------0----0--------------------------------------0----0----------------|
Gb--------------------------------------------------------------------------------------|
Db-----4--------------------------4/5---------------------------------------------2p0---|
Ab-----4--------------------------4/5------------2--------------------------------2p0---|
Eb-----2-------2------------------------   -------0----0--------------------------------|
       A witch      like we’d     thought

Eb-----------------------------------------------------------------------------------|
Bb---------------0---------------------------------------------3---------------------|
Gb--------------------2----------2---------------------------------------------------|
Db---------1---------------------------0-----2----2----2-----------2---2-------------|
Ab----2---------------------2--------------------------------------------------------|
Eb--------------------------------------------------------------------------------0--|
         A     down  pay   ment  on         an      oth    er

Eb------------------------------0-----0---------------------------0---------------------|
Bb------------------------------0-----0---------------------------0---------------------|
Gb--------------------------------------------------------------------------------------|
Db------4-----------------------------------4/5-----------------------------------------|
Ab------4-----------------------------------4/5------- -2-------------------------------|
Eb------2------------2---------------------------------0---0-------------------0-----0--|
         One   at            Sa   lem’s   lot


[Chorus]

Eb--------------------------------------------------------------------------------------|
Bb------------------------------------------------6--6-6------6------6------------------|
Gb------------------------------------0----------6--6-6------6------6-------------------|
Db------7---7--7---7--7------------0----------6--6-6------6------6------------7---7-----|
Ab------7---7--7---7--7------------------------4--4-4------4------4------------7---7----|
Eb------5---5--5---5--5--------------------------------------4------4------------5---5--|
                      Serve the           ser      vants                  oh      no

Eb--------------------------------------------------------------------------------------|
Bb------------------------------------------------6--6--------6------6------------------|
Gb------------------------------------0----------6--6--------6------6-------------------|
Db------7---7--7---7---------------0----------6--6--------6------6------------7---7-----|
Ab------7---7--7---7---------------------------4--4--------4------4------------7---7----|
Eb------5---5--5---5-----------------------------------------4------4------------5---5--|
              Serve the                 ser      vants                  oh      no

Eb--------------------------------------------------------------------------------------|
Bb------------------------------------------------6--6--------6------6------------------|
Gb------------------------------------0----------6--6--------6------6-------------------|
Db------7---7--7---7---------------0----------6--6--------6------6------------7---7-----|
Ab------7---7--7---7---------------------------4--4--------4------4------------7---7----|
Eb------5---5--5---5-----------------------------------------4------4------------5---5--|
              Serve the                 ser      vants                  oh      no

Eb-----------0-----------------------------------------------|
Bb-----------0-----------------6----6-----6-------6------6---|
Gb-----------------------------6-----6-----6---- -6------6---|
Db------7--------7------------6-----6-----6-----6-------6----|
Ab------7--------7------------4-----4-----4------4------4----|
Eb------5--------5--------------------------4------4------4--|
                    Serve the     ser      vants        That

Eb--------------------------------------------------------------------------------------|
Bb--------------------------------------------------------------------------------------|
Gb-----------------------------------------------------------------------------------5--|
Db--------4----4-----4--------4------4-------4------4---- ----------------------5-------|
Ab--------4----4------4-------4------4-------4------4---------------------------5-------|
Eb--------2----2------2-------2------2-------2------2--------3----3-----------3---------|
           Leg           en      dar           y                  di   vorce
Eb--------------------|
Bb----------11 ~~~~---|
Gb------- -11- ~~~~---|
Db---------10--~~~~---|
Ab----------9-- ~~~~--|
Eb--------------------|


[Verse]
Eb---------------------------------------------------------------------------------------------------|
Bb---------------------------------------------------------------------------3-----------------------|
Gb---------------------2------------------2----------------------------------------------------------|
Db-----------1---1-----------------------------0----------2---2----2-------------2---2---------------|
Ab-------2-------------------------2----------------------------------------------------------- -----|
Eb------------------------------------------------------------------------------------------------0--|
           As my    bones   grew       they            did hurt

Eb------------------------0------0--------------------------------0-------0----------------|
Bb------------------------0------0--------------------------------0-------0----------------|
Gb-----------------------------------------------------------------------------------------|
Db------4----------------------------4/5--------------------------------------- --2-----0--|
Ab------4----------------------------4/5-----------2-------------------------- ------------|
Eb------2------2------------------------------------0-------0------------------------------|
        They   hurt    rea     lly    bad

Eb--------------------------------------------------------------------------------------------------------|
Bb------------------------------------------------------------------------------3-------------------------|
Gb-----------------------2-----------------2--------------------------------------------------------------|
Db-----------------1------------------------------0-----2----2------2---------------2------2--------------|
Ab------2----2---------------------2----------------------------------------------------------------------|
Eb-----------------------------------------------------------------------------------------------------0--|
         I      tried     hard      to          have                 a   father          but   in--

Eb------------------------------0-----------------0----------------------------0----0---------------|
Bb------------------------------0-----------------0----------------------------0----0---------------|
Gb--------------------------------------------------------------------------------------------------|
Db------4---------------------------------4--------------5--------------------------------2---------|
Ab------4---------------------------------4--------------5--------2-----------------------2---------|
Eb------2-------------2------------------------ -------------------0----0------------------------0--|
     -- stead   I            had                   a   dad

Eb-----------------------------------------------------------------------------------------------------|
Bb-----------------------------------------------------------------------------3------------3----------|
Gb--------------------------2--------------2-----------------------------------------------------------|
Db--------------------------------------------------0-------2----2-----2------------2------------------|
Ab-------2----2----2--------------2--------------------------------------------------------------------|
Eb--------------------------------------------------------------------------------------------------0--|
           I    just        want   you              to        know       that        I

Eb-----------------------0-------------------------------------------------0---------0--------------|
Bb-----------------------0-------------------------------------------------0---------0--------------|
Gb-------3------------------------------------------------------------------------------------------|
Db-------4--------------------------4------4/5------------------------------------------------------|
Ab-------4--------------------------4------4/5---------2----------------------------------2------0--|
Eb-------2-------2---------------------------------------0-------0----------------------------------|
            Don’t hate you       any      more

Eb----------------------------------------------------------------------------------------------|
Bb-------------------------------------------------------------------------------3----3---------|
Gb-------------------------2--------------------------------------------------------------------|
Db-----------------------------------------------------------2----2----2------------------------|
Ab-------2-----2-----2-----------2----2-----2----0----------------------------------------------|
Eb-------------------------------------------------------------------------------------------0--|
         There is     noth      ing                  I       could  say    that  I

Eb------------------------0----------------0---------------------------0------------0-----0-----|
Bb------------------------0----------------0---------------------------0------------0-----0-----|
Gb------------------------3---------------------------------------------------------------------|
Db--------4---------------4---------4----------5---------------------------------------------5--|
Ab--------4--------------------------4----------5-------2------------------------------------5--|
Eb--------2----------2-----------------------------------0--------0-----------------------------|
        Have  n’t      thought         be  fore

Eb----------------------------------------|
Bb------------- ……………………--|
Gb---------------PLAY CHORUS--------------|
Db------------- …………………..---|
Ab----------------------------------------|
Eb----------------------------------------|


Eb---------------------------------------------------|
Bb------- THE SOLO IS RIDICULOUSLY INDISTINUISHABLE--|
Gb------- SO, YOUR GUESS IS AS GOOD AS MINE----------|
Db---------------------------------------------------|
Ab---------------------------------------------------|
Eb---------------------------------------------------|


Eb-------------------------------------------------|
Bb-------------------------------------------------|
Gb-------------------------------------------------|
Db--------2-----------------------------------X-6--|
Ab--------2----------------------------------------|
Eb--------0----------------------------------------|
          Serve      the     servants oh no

Eb------------------0-------------------------------------------------------------------|
Bb----------------- X-------------------------------------------------------------------|
Gb------------------2-------------2---- -2-----2---------2------------------------------|
Db--------2-----------------------2------2-----2---------2-------------4----4----4------|
Ab--------2-----------------------0------0-----0---------0-------------4----4----4------|
Eb--------0----------------------------------------------------------------2----2----2--|
                       Serve                   the      servants  that      leg--

Eb-------------------------------------------------------------------------------X---------------------|
Bb-----------------------------------------------------------5---5---5--------X-------5------------12--|
Gb-----------------------------------------------------------5---5---5--------X------5-------------12--|
Db--------4-------------4-------4----------4------4------5---5---5------- X-------4-----------11-------|
Ab--------4-------------4-------4----------4------4- ----3---3---5-------- X---------------------------|
Eb--------2-------------2-------2----------2------2------3---3---3---------X---------------------------|
          -- end            ary              di   vorce     is   such        a       bore



************************************

| b  Bend
| p  Pull-off
| /  Slide up
| ~  Vibrato

************************************
Suggest correction
comments
print report bad tab
4 comments total. Showing first comments.
+1 reply
nonickname 10 May 21, 2005 08:00 PM

ur tab is amazing, i really think u did alot on this, thanks for the tab dude

0 reply
E_squared 20 Nov 02, 2007 07:07 PM

Very nice indeed!

0 reply
Saverain 5,335 Nov 06, 2008 05:16 PM

Ok why is this 3 stars I ask myself, it's atleast a four some. Great effort but a little off.

guest
You may want to rate the tab now too:
select rating
Wanna post a correction for this tab? Suggest correction