Oops, an error
Loading. Please wait.

Serve The Servants Bass Tab

version 2
version 2

Whole song

Interactive

4,200 views 3 this week
no commentswrite comment
1 2 3 4 5
x 3
add to favorites
launch autoscroll
font size
0
reset
guitar tuner
Autoscroll
slow
fast
+/-
esc
set tempo
stop
Help us to improve Ultimate-Guitar.com Take our survey!
×
Verse

G |------------------7----7------------------------------|
D |-----7---7------------------------4-2-4---------------|
A |---8---8---8--7-7----7----7--------------------7-5-7--|
E |-7----------------------------2-----------0-----------|

Chorus

        Serve the servants...  oh no
G |------------------------------------------------------|
D |------------------------------------------------------|
A |----------4-4---------------3-2-1---------------------|
E |-5-5-4-5----------------------------------------------|

Post Chorus

G |------------------------------13----------------------|
D |------------------------------12----------------------|
A |------------------------------------------------------|
E |--2-2-2-2-3-3-3-3-------------------------------------|

Tabbed by Ekuude
Suggest correction
Give kudos to tab author, rate the tab!
1 2 3 4 5
comments
print report bad tab
guest
You may want to rate the tab now too:
select rating
Wanna post a correction for this tab? Suggest correction