Oops, an error
Loading. Please wait.

Serve The Servants Tab

version 5
version 5

Interactive

149,536 views 411 this week
14 commentsread comments
1 2 3 4 5
accurate
x 50
add to favorites
launch autoscroll
font size
0
reset
how to read this tab
guitar tuner
Autoscroll
slow
fast
+/-
esc
set tempo
stop
Help us to improve Ultimate-Guitar.com Take our survey!
×
Author
-----------------------------------------------------------------------------
                            SERVE THE SERVANTS - Nirvana
-----------------------------------------------------------------------------
Tabbed by: skatersic666
Email: totalrock2003@yahoo.com

Tuning: 1/2 step down (Eb Ab Db Gb Bb eb)
Album: In Utero


[Intro]

Three Drumstick cue then start..

     N.C                B7              E7                  F#5  C5
eb|-----------14------|-----------------------------------|---------------|
Bb|--13----------14\--|-----------------------3-----------|---------------|
Gb|--12---------------|-----2-----2-----------------------|------5--5-5-0-|
Db|--11---------------|---1---------0---2-2-2-----2--2----|-4-4--5--5-5-0-|
Ab|--x----------------|-2-------2-------------------------|-4-4--3--3-3-0-|
Eb|--0----------------|---------------------------------0-|-2-2-----------|
||
||  E5    B7           B7              E7                   F#5  C5
eb|-------2--2-2------|-----------------------------------|---------------|
Bb|-------0--0-0-0----|-----------------------3-----------|---------------|
Gb|-------2--2-2-0----|------2----2-----------------------|------5--5-5-0-|
Db|-2-2---1--1-1-0----|----1--------0---2-2-2-----2--2----|-4-4--5--5-5-0-|
Ab|-2-2---2--2-2-0----|2-2------2-------------------------|-4-4--3--3-3-0-|
Eb|-0-0---0--0-0------|---------------------------------0-|-2-2-----------|
||
||  E5     B7
eb|-------2--2-2-----|
Bb|-------0--0-0-0---|
Gb|-------2--2-2-0---|
Db|-2-2---1--1-1-0---|
Ab|-2-2---2--2-2-0---|
Eb|-0-0---0--0-0-----|
 

[Verse 1]

    Teenage  angest has paid off well          Now im bord and old
    B7                       E7                F#5  C5        E5  B7
eb|------------------------------------------|--------------------2--2-2--|
Bb|----------------------------------3-------|--------------------0--0-0-0|
Gb|-----2----------2-------------------------|------5--5-5-0------2--2-2-0|
Db|---1---------------0------2-2-2-----2-2---|-4-4--5--5-5-0--2-2-1--1-1-0|
Ab|-2----------2-----------------------------|-4-4--3--3-3-0--2-2-2--2-2-0|
Eb|----------------------------------------0-|-2-2------------0-0-0--0-0-0|
|| 
|| Self  appointed  judges judge               More than they have sold
||  B7                       E7                F#5  C5        E5  B7
eb|------------------------------------------|--------------------2--2-2--|
Bb|----------------------------------3-------|--------------------0--0-0-0|
Gb|-----2----------2-------------------------|------5--5-5-0------2--2-2-0|
Db|---1---------------0------2-2-2-----2-2---|-4-4--5--5-5-0--2-2-1--1-1-0|
Ab|-2----------2-----------------------------|-4-4--3--3-3-0--2-2-2--2-2-0|
Eb|----------------------------------------0-|-2-2------------0-0-0--0-0-0|
||
|| If she floats then  she is  not             A witch like we thought
||  B7                       E7                F#5  C5        E5  B7
eb|------------------------------------------|--------------------2--2-2--|
Bb|----------------------------------3-------|--------------------0--0-0-0|
Gb|---------2------2-------------------------|------5--5-5-0------2--2-2-0|
Db|-------------------0------2-2-2-----2-2---|-4-4--5--5-5-0--2-2-1--1-1-0|
Ab|-2-2-2------2-----------------------------|-4-4--3--3-3-0--2-2-2--2-2-0|
Eb|----------------------------------------0-|-2-2------------0-0-0--0-0-0|
||
|| A down   payment   on an - oth - er         One at  Salem's  lot
||  B7                       E7                F#5  C5        E5  B7
eb|------------------------------------------|--------------------2--2-2--|
Bb|----------------------------------3-------|--------------------0--0-0-0|
Gb|-----2----------2-------------------------|------5--5-5-0------2--2-2-0|
Db|---1---------------0------2-2-2-----2-2---|-4-4--5--5-5-0--2-2-1--1-1-0|
Ab|-2----------2-----------------------------|-4-4--3--3-3-0--2-2-2--2-2-0|
Eb|----------------------------------------0-|-2-2------------0-0-0--0-0-0|


[Chorus 1]

||            Serve the  ser - vants_______    Oh    no____           
||  A5                        C#5                   A5
eb|-------------------------|---------------------|-------------------------|
Bb|-------------------------|---------------------|-------------------------|
Gb|-------------------------|-6---6--6--6--6--6---|-------------------------|
Db|-7--7---7----7---7-----0-|-6---6--6--6--6--6---|-7--7---7----7---7-----0-|
Ab|-7--7---7----7---7-----0-|-4---4--4--4--4--4---|-7--7---7----7---7-----0-|
Eb|-5--5---5----5---5-----0-|---------------------|-5--5---5----5---5-----0-|
||
||                serve the ser - vants________  Oh    no_____
||  A5                        C#5                   A5
eb|-------------------------|---------------------|-------------------------|
Bb|-------------------------|---------------------|-------------------------|
Gb|-------------------------|-6---6--6--6--6--6---|-------------------------|
Db|-7--7---7----7---7-----0-|-6---6--6--6--6--6---|-7--7---7----7---7-----0-|
Ab|-7--7---7----7---7-----0-|-4---4--4--4--4--4---|-7--7---7----7---7-----0-|
Eb|-5--5---5----5---5-----0-|---------------------|-5--5---5----5---5-----0-|
||
||                serve the ser - vants________  Oh    no_____
||  A5                        C#5                   A5
eb|-------------------------|---------------------|-------------------------|
Bb|-------------------------|---------------------|-------------------------|
Gb|-------------------------|-6---6--6--6--6--6---|-------------------------|
Db|-7--7---7----7---7-----0-|-6---6--6--6--6--6---|-7--7---7----7---7-----0-|
Ab|-7--7---7----7---7-----0-|-4---4--4--4--4--4---|-7--7---7----7---7-----0-|
Eb|-5--5---5----5---5-----0-|---------------------|-5--5---5----5---5-----0-|
||
||                serve the ser - vants______ that legend - ar - y   divorce
||  A5                        C#5                   F#5
eb|-------------------------|---------------------|-------------------------|
Bb|-------------------------|---------------------|-------------------------|
Gb|-------------------------|-6---6--6--6--6--6---|-------------------------|
Db|-7--7---7----7---7-----0-|-6---6--6--6--6--6---|-4--4--4--4---4-4-4------|
Ab|-7--7---7----7---7-----0-|-4---4--4--4--4--4---|-4--4--4--4---4-4-4------|
Eb|-5--5---5----5---5-----0-|---------------------|-2--2--2--2---2-2-2--3-3-|
||
||   is    such     a   bore_______________
||  c5                                 N.C
eb|----------------------------------|-------------/13~~~\-----------------|
Bb|----------------------------------|-11----------------------------------|
Gb|-5--5---5----5-5---5---5---5--5---|-11----------------------------------|
Db|-5--5---5----5-5---5---5---5--5---|-10----------------------------------|
Ab|-3--3---3----3-3---3---3---3--3---|-9-----------------------------------|
Eb|----------------------------------|-------------------------------------|


[Verse 2]

|| As my bones grew       they did hurt__      They hurt really bad
||  B7                       E7                F#5  C5        E5  B7
eb|------------------------------------------|--------------------2--2-2--|
Bb|----------------------------------3-------|--------------------0--0-0-0|
Gb|--------2-------2-------------------------|------5--5-5-0------2--2-2-0|
Db|---1-1-------------0------2-2-2-----2-2---|-4-4--5--5-5-0--2-2-1--1-1-0|
Ab|-2----------2-----------------------------|-4-4--3--3-3-0--2-2-2--2-2-0|
Eb|----------------------------------------0-|-2-2------------0-0-0--0-0-0|
||
||  I tried hard to     have  a  father__      But instead I had a dad
||  B7                       E7                F#5  C5        E5  B7
eb|------------------------------------------|--------------------2--2-2--|
Bb|----------------------------------3-------|--------------------0--0-0-0|
Gb|-------2--------2-------------------------|------5--5-5-0------2--2-2-0|
Db|-----1-------------0------2-2-2-----2-2---|-4-4--5--5-5-0--2-2-1--1-1-0|
Ab|-2-2--------2-----------------------------|-4-4--3--3-3-0--2-2-2--2-2-0|
Eb|----------------------------------------0-|-2-2------------0-0-0--0-0-0|
||
|| I just want you   to     know   that  I     Don't hate you anymore 
||  B7                       E7                F#5  C5        E5  B7
eb|------------------------------------------|--------------------2--2-2--|
Bb|----------------------------------3-------|--------------------0--0-0-0|
Gb|---------2------2-------------------------|------5--5-5-0------2--2-2-0|
Db|-------------------0------2-2-2-----2-2---|-4-4--5--5-5-0--2-2-1--1-1-0|
Ab|-2-2-2------2-----------------------------|-4-4--3--3-3-0--2-2-2--2-2-0|
Eb|----------------------------------------0-|-2-2------------0-0-0--0-0-0|
||
||  There is noth - ing    I could say  that I havn't thought before_______
||  B7                       E7                F#5  C5        E5  B7
eb|------------------------------------------|--------------------2--2-2--|
Bb|----------------------------------3-------|--------------------0--0-0-0|
Gb|---------2------2-------------------------|------5--5-5-0------2--2-2-0|
Db|-------------------0------2-2-2-----2-2---|-4-4--5--5-5-0--2-2-1--1-1-0|
Ab|-2-2-2------2-----------------------------|-4-4--3--3-3-0--2-2-2--2-2-0|
Eb|----------------------------------------0-|-2-2------------0-0-0--0-0-0|


[Chorus 2]

||            Serve the  ser - vants_______    Oh    no____           
||  A5                        C#5                   A5
eb|-------------------------|---------------------|-------------------------|
Bb|-------------------------|---------------------|-------------------------|
Gb|-------------------------|-6---6--6--6--6--6---|-------------------------|
Db|-7--7---7----7---7-----0-|-6---6--6--6--6--6---|-7--7---7----7---7-----0-|
Ab|-7--7---7----7---7-----0-|-4---4--4--4--4--4---|-7--7---7----7---7-----0-|
Eb|-5--5---5----5---5-----0-|---------------------|-5--5---5----5---5-----0-|
||
||                serve the ser - vants________  Oh    no_____
||  A5                        C#5                   A5
eb|-------------------------|---------------------|-------------------------|
Bb|-------------------------|---------------------|-------------------------|
Gb|-------------------------|-6---6--6--6--6--6---|-------------------------|
Db|-7--7---7----7---7-----0-|-6---6--6--6--6--6---|-7--7---7----7---7-----0-|
Ab|-7--7---7----7---7-----0-|-4---4--4--4--4--4---|-7--7---7----7---7-----0-|
Eb|-5--5---5----5---5-----0-|---------------------|-5--5---5----5---5-----0-|
||
||                serve the ser - vants________  Oh    no_____
||  A5                        C#5                   A5
eb|-------------------------|---------------------|-------------------------|
Bb|-------------------------|---------------------|-------------------------|
Gb|-------------------------|-6---6--6--6--6--6---|-------------------------|
Db|-7--7---7----7---7-----0-|-6---6--6--6--6--6---|-7--7---7----7---7-----0-|
Ab|-7--7---7----7---7-----0-|-4---4--4--4--4--4---|-7--7---7----7---7-----0-|
Eb|-5--5---5----5---5-----0-|---------------------|-5--5---5----5---5-----0-|
||
||                serve the ser - vants______ that legend - ar - y   divorce
||  A5                        C#5                   F#5
eb|-------------------------|---------------------|-------------------------|
Bb|-------------------------|---------------------|-------------------------|
Gb|-------------------------|-6---6--6--6--6--6---|-------------------------|
Db|-7--7---7----7---7-----0-|-6---6--6--6--6--6---|-4--4--4--4---4-4-4------|
Ab|-7--7---7----7---7-----0-|-4---4--4--4--4--4---|-4--4--4--4---4-4-4------|
Eb|-5--5---5----5---5-----0-|---------------------|-2--2--2--2---2-2-2--3-3-|
||
||   is    such     a___     bore_______________
||  c5                                 N.C
eb|----------------------------------|-------------------------------------|
Bb|----------------------------------|--12---------------------------------|
Gb|-5--5---5----x-x---5---5---5--0---|--12---------------------------------|
Db|-5--5---5----x-x---5---5---5--0---|--12---------------------------------|
Ab|-3--3---3----x-x---3---3---3--0---|-------------------------------------|
Eb|----------------------------------|-------------------------------------|


[Guitar Solo]

||  N.C
|| ==full==========hold  bend==============grad. release to 1/2==
eb|------------------------------------------------------------------------|
Bb|------------0---0-------------------------------------------------------|
Gb|-4b--4---4----4---4--4--4--4--4--4--4--4--4--4--4--4---4---4-4r--4-4-4-4|
Db|------------------------------------------------------------------------|
Ab|------------------------------------------------------------------------|
Eb|------------------------------------------------------------------------|
||
||                   =1/4= =1/2=                          =1/4= =1/2=
eb|---------------|------------------0---0--0---------|-------------------|
Bb|-----------0---|------------------0---0--0---------|-------------------|
Gb|--4--2--0--0---|------------------0---0--0---------|-------------------|
Db|-----------0---|------------------0---0--0---------|----7b-------------|
Ab|-----------0---|------------------0---0--0---2--0--|-7--7b----5--------|
Eb|---------------|-3--3b---3bp0-----0---0--0---------|----------------7--|
||
||     =full=                       =1/2= =1/2=
eb|------------------------|----------------------------------------------|
Bb|------------------------|----------------------------------------------|
Gb|------------------------|----------------------------------------------|
Db|------------------------|----------------------------------------------|
Ab|-0h2-2b=====r---2~~~~~--|-2/4--4--4b----4b===r---4\2--2--2~~~--2--2----|
Eb|------------------------|--------------------------------------------0-|
||
||       =1/2== hold bend==  =1/4=                 ===full===
eb|----------------------------------------------------------------------|
Bb|----------------------------------------------------------------------|
Gb|----------------------------------------------------------------------|
Db|------14b-14-14-14-14-14r--14b----------------------------------------|
Ab|-/16--16b-16-16-16-16-16r--16b--16\--------------------------------0--|
Eb|------------------------------------5-5~~~~5-5/7--7b---7b---7~~~~~~---|
||
||
eb|-------------------------------------------------|--------------------|
Bb|----------------8---------------10-10-10--8------|--------------------|
Gb|-----4--6--6/7------6--7---7/9--9--9--9---7\6--6-|6/7-7-6h7--6h7--6h7-|
Db|-4/6---------------------------------------------|--------------------|
Ab|-------------------------------------------------|--------------------|
Eb|-------------------------------------------------|--------------------|
||
||
eb|----------------------------------------------------------------------|
Bb|---------------0--0--0----0--0----0-----------------------------------|
Gb|---7\6---6\4---4--4--4\2--2--2--2\0-----------------------------------|
Db|----------------------------------------------------------------------|
Ab|----------------------------------------------------------------------|
Eb|----------------------------------------------------------------------|


[Chorus 3]
||            Serve the  ser - vants_______    Oh    no____           
||  A5                        C#5                   A5
eb|-------------------------|---------------------|-------------------------|
Bb|-------------------------|---------------------|-------------------------|
Gb|-------------------------|-6---6--6--6--6--6---|-------------------------|
Db|-7--7---7----7---7-----0-|-6---6--6--6--6--6---|-7--7---7----7---7-----0-|
Ab|-7--7---7----7---7-----0-|-4---4--4--4--4--4---|-7--7---7----7---7-----0-|
Eb|-5--5---5----5---5-----0-|---------------------|-5--5---5----5---5-----0-|
||
||            Serve the  ser - vants_______    Oh    no____           
||  A5                        C#5                   A5
eb|-------------------------|---------------------|-------------------------|
Bb|-------------------------|---------------------|-------------------------|
Gb|-------------------------|-6---6--6--6--6--6---|-------------------------|
Db|-7--7---7----7---7-----0-|-6---6--6--6--6--6---|-7--7---7----7---7-----0-|
Ab|-7--7---7----7---7-----0-|-4---4--4--4--4--4---|-7--7---7----7---7-----0-|
Eb|-5--5---5----5---5-----0-|---------------------|-5--5---5----5---5-----0-|
||
||            Serve the  ser - vants_______    Oh    no____           
||  A5                        C#5                   A5
eb|-------------------------|---------------------|-------------------------|
Bb|-------------------------|---------------------|-------------------------|
Gb|-------------------------|-6---6--6--6--6--6---|-------------------------|
Db|-7--7---7----7---7-----0-|-6---6--6--6--6--6---|-7--7---7----7---7-----0-|
Ab|-7--7---7----7---7-----0-|-4---4--4--4--4--4---|-7--7---7----7---7-----0-|
Eb|-5--5---5----5---5-----0-|---------------------|-5--5---5----5---5-----0-|
||
||            Serve the  ser - vants_______    Oh    no____           
||  A5                        C#5                   A5
eb|-------------------------|---------------------|-------------------------|
Bb|-------------------------|---------------------|-------------------------|
Gb|-------------------------|-6---6--6--6--6--6---|-------------------------|
Db|-7--7---7----7---7-----0-|-6---6--6--6--6--6---|-7--7---7----7---7-----0-|
Ab|-7--7---7----7---7-----0-|-4---4--4--4--4--4---|-7--7---7----7---7-----0-|
Eb|-5--5---5----5---5-----0-|---------------------|-5--5---5----5---5-----0-|

||
||                serve the ser - vants________  Oh    no_____
||  A5                        C#5                   A5
eb|-------------------------|---------------------|-------------------------|
Bb|-------------------------|---------------------|-------------------------|
Gb|-------------------------|-6---6--6--6--6--6---|-------------------------|
Db|-7--7---7----7---7-----0-|-6---6--6--6--6--6---|-7--7---7----7---7-----0-|
Ab|-7--7---7----7---7-----0-|-4---4--4--4--4--4---|-7--7---7----7---7-----0-|
Eb|-5--5---5----5---5-----0-|---------------------|-5--5---5----5---5-----0-|
||
||                serve the ser - vants________  Oh    no_____
||  A5                        C#5                   A5
eb|-------------------------|---------------------|-------------------------|
Bb|-------------------------|---------------------|-------------------------|
Gb|-------------------------|-6---6--6--6--6--6---|-------------------------|
Db|-7--7---7----7---7-----0-|-6---6--6--6--6--6---|-7--7---7----7---7-----0-|
Ab|-7--7---7----7---7-----0-|-4---4--4--4--4--4---|-7--7---7----7---7-----0-|
Eb|-5--5---5----5---5-----0-|---------------------|-5--5---5----5---5-----0-|
||
||                serve the ser - vants______ that legend - ar - y   divorce
||  A5                        C#5                   F#5
eb|-------------------------|---------------------|-------------------------|
Bb|-------------------------|---------------------|-------------------------|
Gb|-------------------------|-6---6--6--6--6--6---|-------------------------|
Db|-7--7---7----7---7-----0-|-6---6--6--6--6--6---|-4--4--4--4---4-4-4------|
Ab|-7--7---7----7---7-----0-|-4---4--4--4--4--4---|-4--4--4--4---4-4-4------|
Eb|-5--5---5----5---5-----0-|---------------------|-2--2--2--2---2-2-2--3-3-|
||
||   is    such     a___     bore______________________________*
||  C5                                 N.C
eb|----------------------------------|------------------------------------|
Bb|-5--5---5----x-x---x---x---5--0---|--5---------------------------------|
Gb|-5--5---5----x-x---5---x---5--0---|--5---------------------------------|
Db|-5--5---5----x-x---5---x---5--0---|--4---------------------------------|
Ab|-3--3---3----x-x---3---x---3--0---|------------------------------------|
Eb|----------------------------------|------------------------------------|

*To end scrape pick against strings, scrape low strings against the fretboad
and have some feedback coming from the amp.


NOTE:
The solo is an anti-solo, you can't get the actual notes Kurt played right.
Just get a feel for the solo and where the notes are, and kinda improvise
to make it sound original .More like an anti-solo and less like you are 
reading a tab printed off of Ultiamte-Guitar...

********************************************************

| /  slide up
| \  slide down
| h  hammer-on
| p  pull-off
| ~  vibrato
| +  harmonic
| x  Mute note
| =1/2= These are placed above strings you need to bend in the solo. These
        tell you how much to bend a string and how long to hold it for.

********************************************************
Suggest correction
comments
print report bad tab
14 comments total. Showing first comments.
0 reply
f117_nighthawk 40 wrote on December 29 2004, 12:00 am

is what he put as E7, really E7? cuz if it was the 2nd fret that is played should be moved down a string. Otherwise good tab...

0 reply
skatersic666 547 wrote on December 31 2004, 12:00 am

im not sure what chord shape its closest like (C7 maybe?) but i know the fingering is in the right position, its just the chord name is wrong...

any one any suggestions on what chord shape is the closest to it and i will change it

+1 reply
ordino 10 wrote on July 26 2006, 07:36 am

luv this tab, 4 stars

guest
You may want to rate the tab now too:
select rating
Please do not post tabs as comments. Select "correction" instead!