Oops, an error
Loading. Please wait.

Serve The Servants Tab

version 6
version 6

Interactive

6,715 views 42 this week
no commentswrite comment
1 2 3 4 5
accurate
x 4
add to favorites
launch autoscroll
font size
0
reset
how to read this tab
guitar tuner
Autoscroll
slow
fast
+/-
esc
set tempo
stop
Help us to improve Ultimate-Guitar.com Take our survey!
×
Author
Difficulty
Tuning
intermediate
D# G# C# F# A# D#
Song: Serve The Servants
Album: in Utero

Tabbed by: dkeenan

Tuning: Half-Step Down

*e-mail me at xraptor1147@aim.com or message me on UG for any questions or clarifications*

*NOTES* This is my first tab. I hope you enjoy it and PLEASE leave feedback/criticisms; 
I can only learn by my mistakes.*



Intro

eb|--x--x--x--13\------14-----|
Bb|--x--x--x--12\---------14/-|
Gb|--x--x--x--11\-------------|
Db|--x--x--x--10\-------------|
Ab|--x--x--x---0\-------------|
Eb|--x--x--x------------------|


eb|------------------------------------------|------0--0-0---------0--0-0---|
Bb|--------------------------------3----3----|------0--0-0---------0--0-0---|
Gb|-----2----------2-------------1---------1-|------3--3-----------1--1-----|
Db|---1--------------2------2-2-------2------|-4----4------4--2----2------2-|
Ab|-2----------2-----------------------------|-4----4------4--2----2------2-|
Eb|------------------------------------------|-2--0-2------2--0--0-0------0-|


eb|------------------------------------------|------0--0-0---------0--0-0---|
Bb|--------------------------------3----3----|------0--0-0---------0--0-0---|
Gb|-----2----------2-------------1---------1-|------3--3-----------1--1-----|
Db|---1--------------2------2-2-------2------|-4----4------4--2----2------2-|
Ab|-2----------2-----------------------------|-4----4------4--2----2------2-|
Eb|------------------------------------------|-2--0-2------2--0--0-0------0-|


Verse

eb|------------------------------------------|------0--0-0---------0--0-0---|
Bb|--------------------------------3----3----|------0--0-0---------0--0-0---|
Gb|-----2----------2-------------1---------1-|------3--3-----------1--1-----|
Db|---1--------------2------2-2-------2------|-4----4------4--2----2------2-|
Ab|-2----------2-----------------------------|-4----4------4--2----2------2-|
Eb|------------------------------------------|-2--0-2------2--0--0-0------0-|



eb|------------------------------------------|------0--0-0---------0--0-0---|
Bb|--------------------------------3----3----|------0--0-0---------0--0-0---|
Gb|-----2----------2-------------1---------1-|------3--3-----------1--1-----|
Db|---1--------------2------2-2-------2------|-4----4------4--2----2------2-|
Ab|-2----------2-----------------------------|-4----4------4--2----2------2-|
Eb|------------------------------------------|-2--0-2------2--0--0-0------0-|



eb|------------------------------------------|------0--0-0---------0--0-0---|
Bb|--------------------------------3----3----|------0--0-0---------0--0-0---|
Gb|-----2----------2-------------1---------1-|------3--3-----------1--1-----|
Db|---1--------------2------2-2-------2------|-4----4------4--2----2------2-|
Ab|-2----------2-----------------------------|-4----4------4--2----2------2-|
Eb|------------------------------------------|-2--0-2------2--0--0-0------0-|



eb|------------------------------------------|------0--0-0---------0--0-0---|
Bb|--------------------------------3----3----|------0--0-0---------0--0-0---|
Gb|-----2----------2-------------1---------1-|------3--3-----------1--1-----|
Db|---1--------------2------2-2-------2------|-4----4------4--2----2------2-|
Ab|-2----------2-----------------------------|-4----4------4--2----2------2-|
Eb|------------------------------------------|-2--0-2------2--0--0-0------0-|


Chorus


eb|--------0\-------------------------------------|
Bb|--------0\-------------------------------------|
Gb|--------0\---------------6--6---6----6---6---6-|
Db|-7--7--------7---7---7---6--6---6----6---6---6-|
Ab|-7--7--------7---7---7---4--4---4----4---4---4-|
Eb|-5--5--------5---5---5-------------------------|


eb|--------0\-------------------------------------|
Bb|--------0\-------------------------------------|
Gb|--------0\---------------6--6---6----6---6---6-|
Db|-7--7--------7---7---7---6--6---6----6---6---6-|
Ab|-7--7--------7---7---7---4--4---4----4---4---4-|
Eb|-5--5--------5---5---5-------------------------|


eb|--------0\-------------------------------------|
Bb|--------0\-------------------------------------|
Gb|--------0\---------------6--6---6----6---6---6-|
Db|-7--7--------7---7---7---6--6---6----6---6---6-|
Ab|-7--7--------7---7---7---4--4---4----4---4---4-|
Eb|-5--5--------5---5---5-------------------------|


eb|--------0\-------------------------------------|
Bb|--------0\-------------------------------------|
Gb|--------0\---------------6--6---6----6---6---6-|
Db|-7--7--------7---7---7---6--6---6----6---6---6-|
Ab|-7--7--------7---7---7---4--4---4----4---4---4-|
Eb|-5--5--------5---5---5-------------------------|


eb|------------------------------------------0\------14-|
Bb|------------------------------------------0\------14-|
Gb|------------------------------------------4\---------|
Db|-4---4--4---4--4--4---5---5--5---5--5--5--4\---------|
Ab|-4---4--4---4--4--4---5---5--5---5--5--5--2\---------|
Eb|-2---2--2---2--2--2---3---3--3---3--3--3-------------|


Solo


eb|------------------------------------------------------------------------|
Bb|------------0---0-------------------------------------------------------|
Gb|-4b/--4--4----4---4--4--4--4--4--4--4--4--4--4--4--4---4---4-4r--4-4-4-4|
Db|------------------------------------------------------------------------|
Ab|------------------------------------------------------------------------|
Eb|------------------------------------------------------------------------|
||
||
eb|---------------|------------------0---0--0---------|--------------------|
Bb|---------------|------------------0---0--0---------|--------------------|
Gb|--4--2--0--0---|------------------0---0--0---------|--------------------|
Db|-----------0---|-----------------------------------|----7b--------------|
Ab|-----------0---|-----------------------------2--0--|-7--7b----5---------|
Eb|---------------|-3--3b---3b-0----------------------|----------------7---|
||
||
eb|------------------------|-----------------------------------------------|
Bb|------------------------|-----------------------------------------------|
Gb|------------------------|-----------------------------------------------|
Db|------------------------|-----------------------------------------------|
Ab|-0/2-2b\--------2\------|-2/4--4--4b----4b\------4\2--2--2\----2--2-----|
Eb|------------------------|--------------------------------------------0--|
||
||
eb|-----------------------------------------------------------------------|
Bb|-----------------------------------------------------------------------|
Gb|-----------------------------------------------------------------------|
Db|------14b-14-14-14-14-14\--14b-----------------------------------------|
Ab|-/16--16b-16-16-16-16-16\--16b--16\---------------------------------0--|
Eb|------------------------------------5-5~~~~5-5/7---7b---7b---7~~~~~~---|
||
||
eb|-------------------------------------------------|---------------------|
Bb|----------------8---------------10-10-10--8------|---------------------|
Gb|-----4--6--6/7------6--7---7/9--9--9--9---7\6--6-|6/7-7-6h7--6h7--6h7--|
Db|-4/6---------------------------------------------|---------------------|
Ab|-------------------------------------------------|---------------------|
Eb|-------------------------------------------------|---------------------|
||
||
eb|-----------------------------------------------------------------------|
Bb|---------------0--0--0----0--0----0------------------------------------|
Gb|---7\6---6\4---4--4--4\2--2--2--2\0------------------------------------|
Db|-----------------------------------------------------------------------|
Ab|-----------------------------------------------------------------------|
Eb|-----------------------------------------------------------------------|


The song follows this format:

Intro
Verse
Chorus
Verse
Chorus
Solo
Chorus

Lyrics:

[Verse 1]
Teenage angst has paid off well
Now I'm bored and old
Self-appointed judges judge
More than they have sold
If she floats then she is not
A witch like they had thought
A down payment on another
One at Salem's Lot

[Chorus]
Serve The Servants, Oh no
Serve The Servants, Oh no
Serve The Servants, Oh no
Serve The Servants;
That legendary divorce is such a bore

[Verse 2]
As my bones grew they did hurt
They hurt really bad
I tried hard to have a father
But instead I had a dad
I just want you to know that I
Don't hate you anymore
There is nothing I can say
That I haven't thought before

[Chorus]

[Solo]

[Chorus]


LEARNING SONG:

This song isn't hard to learn, but I'd recommend learning and mastering open chords and 
power chords before you play this.

Otherwise, its a breeze.
Suggest correction
comments
print report bad tab
guest
You may want to rate the tab now too:
select rating
Wanna post a correction for this tab? Suggest correction