Oops, an error
Loading. Please wait.

Shifting Tab

version 2
version 2

Whole song

555 views 3 this week
1 commentread comment
1 2 3 4 5
3 more votes to show rating
add to favorites
launch autoscroll
font size
0
reset
how to read this tab
guitar tuner
Autoscroll
slow
fast
+/-
esc
set tempo
stop
Help us to improve Ultimate-Guitar.com Take our survey!
×
Sifting

____________________________________________________________________________

TUNING:

Regular tuning

INTRO
e---------------------------------------------------------------------------|
b---------------------------------------------------------------------------|
g---------------------------------------------------------------------------|
d---------------------------------------------------------------------------|
a---------------------------------------------------------------------------|
e--0--0--0--0----0--0--0--0----0--0--0--0----0--0--0--0---------------------|
   PM..................................................

e---------------------------------------------------------------------------|
b---------------------------------------------------------------------------|
g---------------------------------------------------------------------------|
d-------------3--------------2--1--0-----------------3----------------------|
a--PM.....----3---PM.....----2--1--0-------PM.....---3-----PM........-------|
e--0--0--0--------0--0--0------------------0--0--0---------0--0--0--0-------|
Play twice

VERSE
e---------------------------------------------------------------------------|
b---------------------------------------------------------------------------|
g---------------------------------------------------------------------------|
d-----------3------------2--1--0-------------3------------2--1--0-----------|
a--PM.....--3--PM.....---2--1--0----PM.....--3--PM.....---2--1--0-----------|
e--0--0--0-----0--0--0--------------0--0--0-----0--0--0---------------------|

then
e---------------------------------------------------------------------------|
b---------------------------------------------------------------------------|
g---------------------------------------------------------------------------|
d-------------5~~~~~\-------------5~~~~~\-----------------------------------|
a--PM.....----5~~~~~\--PM.....----5~~~~~\-----------------------------------|
e--0--0--0-------------0--0--0----------------------------------------------|
play that 4 times, then

CHORUS
e---------------------------------------------------------------------------|
b---------------------------------------------------------------------------|
g--5--5-5--5-----------------------5--5-5--5--------------------------------|
d--5--5-5--5-0---)--)-----------0--5--5-5--5-0---)--)-----------0-----------|
a--3--3-3--3-0--7--7--7\5--5--5-0--3--3-3--3-0--7--7--7\5--5--5-0-----------|
e---------------5--5--5\3--3--3-----------------5--5--5\3--3--3-------------|

play that 3 times, then
e---------------------------------------------------------------------------|
b---------------------------------------------------------------------------|
g--5--5-5--5-----------------------5--5-5--5----4---------------------------|
d--5--5-5--5-0---)--)-----------0--5--5-5--5-0--4---------------------------|
a--3--3-3--3-0--7--7--7\5--5--5-0--3--3-3--3-0--2---------------------------|
e---------------5--5--5\3--3--3---------------------------------------------|

SOLO
e---------------------------------------------------------------------------|
b--------------)~~~---------------------------------------------------------|
g-------------11------------------------------------------------------------|
d-----------------------------------)-12-(----------------------)~~~--------|
a---------------------------------12------12------------------12------------|
e--0--0--0-------------0--0--0-------------------0--0--0--------------------|

e---------------------------------------------------------------------------|
b---------------------------------------------------------------------------|
g---------------------------------------------------------------------------|
d--------------)-12-(----------------)~~~--------------)-12-(---------------|
a------------12------12------------12----------------12------12-------------|
e--0--0--0---------------0--0--0-----------0--0--0--------------------------|

e---------------------------------------------------------------------------|
b---------------------------------------------------------------------------|
g---------------------------------------------------------------------------|
d--------------)-12-(-------------------)-12-(------------------------------|
a------------12------12---------------12------12----------------------------|
e--0--0--0------------------0--0--0------------------0--0--0----------------|

e----------------------------------------------------------------------------|
b----)-----------------------------------------------------------------------|
g--11---11-------------------------------------------------------------------|
d---------------12----------)--------12----)------------12---------)--12-----|
a-----------12-----(12)---12---(12)------12---(12)---12----(12)--12------12\-|
e----------------------------------------------------------------------------|

e----------------------------------------------------------------------------|
b----)---------------------------------------------------0---2--x------------|
g--11---(11)--(11)\--0--2--3--4--5--6--7--9--9--9--7--0----2---------------0-|
d------------------------------------------------------------------2--2\0----|
a----------------------------------------------------------------------------|
e----------------------------------------------------------------------------|

e---------------------------------------------------------------------------|
b--5--5--5---5--(5)\4--4\2--0------)--------------)---0--0------------------|
g--5--5--5---5--(5)\4--4-------1--2---(2)--2--2--2/3--0---------------------|
d---------------------------------------------------------------------------|
a---------------------------------------------------------------------------|
e---------------------------------------------------------------------------|

e--------)-----------------------------------)------------------------------|
b--12--14--14--12--0--------------------)--17-------0------------------)----|
g---------------------12--12--14--12--14---17---14--0--7--7--9--9----(9)----|
d------------------------------------------------------------------0--------|
a---------------------------------------------------------------------------|
e---------------------------------------------------------------------------|

e---------------------------------------------------------------------------|
b-------------)------------0------------------------------------------------|
g-----0--5--14--14--12--9--0--7--9--10--10--10\7--2-------------------------|
d--x-----5-----------------------------------------------)------------------|
a------------------------------------------------------12----(12)-----------|
e---------------------------------------------------------------------------|

e---------------------------------------------------------------------------|
b---------------------------------------------------------------------------|
g---------------------------------------------------------------------------|
d----)----------------)-------------12----------------------12--------------|
a--12---12--(12)----12---(12)---12------(12)--12--(12)--12------(12)--------|
e---------------------------------------------------------------------------|

e---------------------------------------------------------------------------|
b------------------------------------------------0--------------------------|
g------------------------------------------------0--------------------------|
d----)--12------------------)--------------------0--------------------------|
a--12-------(12)----------12------------------------------------------------|
e---------------------------------------------------------------------------|
Suggest correction
Give kudos to tab author, rate the tab!
1 2 3 4 5
comments
print report bad tab
1 comment total.
+1 reply
feesk8ordie 1,082 Mar 28, 2005 12:00 AM

there is no nirvana song called shifting. check the bleach back cover. its called sifting

guest
You may want to rate the tab now too:
select rating
Wanna post a correction for this tab? Suggest correction