Oops, an error
Loading. Please wait.

Sifting Tab

version 1
version 1

Whole song

Interactive

14,211 views 33 this week
no commentswrite comment
1 2 3 4 5
x 14
add to favorites
launch autoscroll
font size
0
reset
how to read this tab
guitar tuner
×
Best way to learn
"Sifting"
Autoscroll
slow
fast
+/-
esc
set tempo
stop
Author
Difficulty
Tuning: standard

[Intro]
e|---------------------------------------------------------------------------|
B|---------------------------------------------------------------------------|
G|---------------------------------------------------------------------------|
D|-------------------------------------------------3-------2/1-0-------------|
A|-------------------------------------------------3-------2/1-0-------------|
E|--0-0-0-0---0-0-0-0---0-0-0-0---0-0-0-0---0-0-0----0-0-0-------------------|
   PM - - -   - - - -   - - - -   - - - -   - - -    - - -

e|---------------------------------------------------------------------------|
B|---------------------------------------------------------------------------|
G|---------------------------------------------------------------------------|
D|--------3-------------------3-------2/1-0--------3-------------------------|
A|--------3-------------------3-------2/1-0--------3-------------------------|
E|--0-0-0---0-0-0-------0-0-0---0-0-0--------0-0-0---0-0-0-------------------|
    - - -   - - -       - - -   - - -        - - -   - - -

[Verse]
e|---------------------------------------------------------------------------|
B|---------------------------------------------------------------------------|
G|---------------------------------------------------------------------------|
D|--------3-------2/1-0------------------------------------------------------|
A|--------3-------2/1-0------------------------------------------------------|
E|--0-0-0---0-0-0------------------------------------------------------------|
    - - -   - - -
   Afraid to grade.........

[Pre-Chorus]
e|---------------------------------------------------------------------------|
B|---------------------------------------------------------------------------|
G|---------------------------------------------------------------------------|
D|--------5--------5-------5-------------------------------------------------|
A|--------5--------5-------5-------------------------------------------------|
E|--0-0-0----0-0-0---0-0-0---------------------------------------------------|
    - - -    - - -   - - -
    your eyes.....

[Chorus]
e|---------------------------------------------------------------------------|
B|--5--5-5--5-------------------5--5-5--5-------------------5--5-5--5--------|
G|--5--5-5--5-------------------5--5-5--5-------------------5--5-5--5--------|
D|--5--5-5--5-------------------5--5-5--5-------------------5--5-5--5--------|
A|--3--3-3--3-------------------3--3-3--3-------------------3--3-3--3--------|
E|------------5b6-5b6-3-0-0-0--------------5b6-5b6-3-0-0-0------------5b6-5b6|
   Dont have nothing for you....

e|---------------------------------------------------------------------------|
B|----------5--5-5--5----------------------5--5-5--5---4---------------------|
G|----------5--5-5--5----------------------5--5-5--5---4---------------------|
D|----------5--5-5--5----------------------5--5-5--5---4---------------------|
A|----------3--3-3--3----------------------3--5-3--3---2---------------------|
E|--3-0-0-0-----------5b6-5b6-3-0-0-0----------------------------------------|

[Solo]
e|---------------------------------------------------------------------------|
B|---------------------------------------------------------------------------|
G|--------10b12--------------------------------------------------------------|
D|--------------------------12-----------------------------11----------------|
A|--------------------12b13----12~-------12b13-------12b13----12~------------|
E|--0-0-0-------0-0-0--------------0-0-0-------0-0-0-------------------------|
  PM- - -       - - -              - - -       - - -

e|---------------------------------------------------------------------------|
B|---------------------------------------------------------------------------|
G|---------------------------------------------------------------------------|
D|--------------------------12----------------12----------------12-----------|
A|--------12b13-------12b13---12~-------12b13----12~-------12b13----12~------|
E|--0-0-0-------0-0-0-------------0-0-0--------------0-0-0-------------------|
    - - -       - - -             - - -              - - -

e|---------------------------------------------------------------------------|
B|------------------------------------------------------------2-3-5--5~------|
G|--------10b12--10--12--10--5~-6~-7-7-9-9-7p5p0-5-4-4p0-2-0---------5~------|
D|---------------------------------------------------------------------------|
A|---------------------------------------------------------------------------|
E|--0-0-0--------------------------------------------------------------------|
             A.H ----------                               A.H -----
     
e|---------------------------------------------------------------------------|
B|--5/4------------------------0---12--14--14b15-14~--14p12p0--10-10b12------|
G|--5/4--4/2-0---2b3-2p0h2-0---0---------------------------------------------|
D|---------------------------------------------------------------------------|
A|---------------------------------------------------------------------------|
E|---------------------------------------------------------------------------|

e|-----------12b14-----------------------------------------------------------|
B|--8-10b12--12b14--10-------------------------------------------------------|
G|----------------------7-7b8-------9b11------14b16--12p9p0--7-9-10/7--2~----|
D|----------------------------10b11-------10---------------------------------|
A|----------------------------10b11-------10---------------------------------|
E|---------------------------------------------------------------------------|

e|---------------------------------------------------------------------------|
B|---------------------------------------------------------------------------|
G|---------------------------------------------------------------------------|
D|--------------------------------------------------12-----------------------|
A|--------12b13-------12b13-------12b13-------12b13----12-------12b13--------|
E|--0-0-0-------0-0-0-------0-0-0-------0-0-0-------------0-0-0--------------|
    - - -       - - -       - - -       - - -             - - -

e|---------------------------------------------------------------------------|
B|--------------------------------------------------0------------------------|
G|--------------------------------------------------0------------------------|
D|-------------12----------------12-----------------0------------------------|
A|-------12b13----12-------12b13----12-------12b13---------------------------|
E|-0-0-0-------------0-0-0-------------0-0-0---------------------------------|
   - - -             - - -             - - -


************************************

| /   Slide up
| PM  Palm mute
| b   Bend
| ~   Vibrato
| p   Pull-off
| h   Hammer-on

************************************
Suggest correction
comments
print report bad tab
guest
You may want to rate the tab now too:
select rating
Wanna post a correction for this tab? Suggest correction