Oops, an error
Loading. Please wait.

Sliver Tab

version 1
version 1

Album

Whole song

18,978 views 9 this week
3 commentsread comments
1 2 3 4 5
x 6
add to favorites
launch autoscroll
font size
0
reset
how to read this tab
guitar tuner
Autoscroll
slow
fast
+/-
esc
set tempo
stop
Help us to improve Ultimate-Guitar.com Take our survey!
×
Author
Most of these were tabbed by other people im not here to claim there work as mine, im
bringing all these tabs together so that there is a whole album to save time instead of 
for each indivdual tab here they all are as one.


SPANK THRU

Tuning:Standard

INTRO
A5	     G5	      D5      A5	     G5
------------------------------I-----0---------------------------|I
----------------------3-3-3---I------------------0---0----------|I
2----2--2-2-0---0-0-0-2-2-2-0-I2--2-2--2-2-------0---0----------|I
2--2-2--2-2-0---0-0-0-0-0-0-0-I2--2-2--2-2-0-0---0---0----------|I
0--0-0--0-0-0-------0-------0-I0--0-0--0-0-0--------------------|I
------------0-3-3-3-0-------0-I------------0-3---3---3-2-0------|I
let ring


VERSE RIFF
A5	     G5	      D5      A5	     G5
------------------------------I---------------------------------|I
----------------------3-3-3---I------------------0--------------|I
2----2--2-2-0-----0---2-2-2-0-I2--2-2--2-2-------0--------------|I
2--2-2--2-2-0---0-0-0-0-0-0-0-I2--2-2--2-2---0---0---0----------|I
0--0------0-0-------0-------0-I0--0----0-0-0--------------------|I
--------------3-3-3-0---------I------------0-3---3---3-2-0------|I
PM__          PM_              PM__          PM

CHORUS

D		A		F5		G5
2--2--2--2-2---I---------------I---------------I---------------------|I
3--3--3--3-3---I-2--2--2-2-2---I---------------I---------------------|I
2--2--2--2-2---I-2--2--2-2-2-0-I------3--3-----I------5-----5-0------|I
0--0--0--0-0-0-I-2--2--2-2-2-0-I------3--3---3-I------5-----5-0------|I
-------------0-I-0--0--0-0-0-0-I-3----3--3-3-3-I-5--5-5---5-5-0------|I
---------------I-------------0-I-1--1-1--1-1-1-I-3--3-3---3-3-0------|I

D		A		F5		G5
2--2--2--2-2--I--------------I---------I-----------------I-----0-0-0-0----------|I
3--3--3--3-3--I-2--2--2-2-2--I---------I-----------------I-----0-0-0-0----------|I
2--2--2--2-2--I-2--2--2-2-2-0I---------I-----------------I---------------0------|I
0--0--0--0-0-0I-2--2--2-2-2-0I-3-------I---------5-5-5-5-I-5-5-5-5-5-5-5-0------|I
-------------0I-0--0--0-0-0-0I-3-------I-5-5-5-5-5-5-5-5-I-5-5-5-5-5-5-5-0------|I
--------------I-------------0I-1-------I-3-3-3-3-3-3-3-3-I-3-3-3-3-3-3-3-0------|I
						PM_______________

HEAVY VERSE RIFF
E5    G5
----------------------|I
----------------------|I
-----------5----------|I
---0-------5---0------|I
2--0--5----5---0------|I
0-----3------3--------|I

HEAVY CHORUS
B5	A#5A5D5        A5     A#5B5      A#5A5D5	   A5  A#5
---------------I----------------I---------------I---------------------|I
-------------3-I--3-3-3---------I-------------3-I--3-3----------------|I
4--4-4-4-3-2-2-I--2-2-2-2-2-2-3-I4--4-4-4-3-2-2-I--2-2-----2-2-3------|I
4--4-4-4-3-2-0-I--0-0-0-2-2-2-3-I4--4-4-4-3-2-0-I--0-0-----2-2-3------|I
2--2-2-2-1-0---I--------0-0-0-1-I2--2-2-2-1-0---I----------0-0-1------|I
---------------I----------------I---------------I---------------------|I

B5	A#5A5D5        A5     A#5B5		G5	F5
---------------I----------------I--------------I----------------------|I
-------------3-I--3-3-3---------I--------------I----------------------|I
4--4-4-4-3-2-2-I--2-2-2-2-2-2-3-I4--4-4--4-4-4-I----------------------|I
4--4-4-4-3-2-0-I--0-0-0-2-2-2-3-I4--4-4--4-4-4-I-----5-0-----3-0------|I
2--2-2-2-1-0---I--------0-0-0-1-I2--2-2--2-2-2-I-5-5-----3-3---0------|I
---------------I----------------I--------------I-3-3-----1-1----------|I
						PM__     PM_

AFTER 2ND HEAVY CHORUS
----I---I---I--------|I
----I---I---I--------|I
----I---I---I--------|I
2---I---I---I--------|I
2---I---I---I--------|I
0---I---I------------|I-/-I

----------------------------------------------------------------------------
Tabbed by: ipdaily

Heartbreaker (originally Led Zeppelin)
Intro riff 1
e|----------------------------------------|
B|----------------------------------------|
G|----------------------------------------|
D|-------0-1-2-------------------0-1-2----|
A|-0-3~~--------------0-0-0-3~~~----------|
E|-------------3------------------------3-|

Intro riff 2
e|----------------------------------------|
B|----------------------------------------|
G|-------0-1-2-------------------0-1-2----|
D|-0-3~~~-------------0-0-0-3~~~----------|
A|-------------3------------------------3-|
E|----------------------------------------|

Verse
e|---------------|
B|---------------|
G|-2-x-x-x-5-----|
D|-2-x-x-x-5-----|
A|-0-x-x-x-3-----|
E|---------------|

----------------------------------------------------------------------------

Tabbed by: Jake168988

Mrs Butterworth

Verse 1

e-----------------|
B-----------------|
G-----------------|
D--0------------1-|
A---------------1-|
E-0--5p3p0-0-0-1--|

Chorus

e----------------------------|
B----------------------------|
G------9-9-9-9---------------|
D-2-2--9-9-9-9-7-7-7-8-8-8-8-|
A-2-2-/7-7-7-7-7-7-7-8-8-8-8-|
E-0-0--------5-5-5-5-6-6-6-6-|

Verse 2

e-----------------|
B-----------------|
G-----------------|
D--0------------1-|
A---------------1-|
E-0--5p3p0-0-0-1--|

Chorus (again)

e----------------------------|
B----------------------------|
G------9-9-9-9---------------|
D-2-2--9-9-9-9-7-7-7-8-8-8-8-|
A-2-2-/7-7-7-7-7-7-7-8-8-8-8-|
E-0-0--------5-5-5-5-6-6-6-6-|

----------------------------------------------------------------------------
			    Floyd the Barber - Nirvana
----------------------------------------------------------------------------
Tabbed by: Andrew Hilliard
Email: info@4drspeed.com

Tuning: Drop D

e|-------------------------------------------------------------------------|
B|-------------------------------------------------------------------------|
G|-------------------------------------------------------------------------|
D|--2--2-------------------------------------------------------------------|
A|--2--2-----0--0--0-------------------------------------------------------|
D|--2--2-----0--0--0-------------------------------------------------------|
                   [p.m.]
e|-------------------------------------------------------------------------|
B|-------------------------------------------------------------------------|
G|---5--5--x----2--2--x---4------------------------------------------------|
D|---5--5--x----2--2--x---4----5---5---5---5-------------------------------|
A|---3--3--x----0--0--x---2----5---5---5---5-------------------------------|
D|-------------------------------5---5---5---5-----------------------------|

e|-------------------------------------------------------------------------|
B|-------------------------------------------------------------------------|
G|-------------------------------------------------------------------------|
D|-------------------------------------------------------------------------|
A|-----------1-2---2--0--2--3--2-------------------------------------------|
D|---~2---0----------------------------------------------------------------|
     Solo (Not quite sure about the solo, but close enough)
e|-------------------------------------------------------------------------|
B|-------------------------------------------------------------------------|
G|-------------------------------------------------------------------------|
D|-------------------------------------------------------------------------|
A|-----------1-2--3-3--5-5--7-7--9-9---------------------------------------|
E|---~2---0----------------------------------------------------------------|
     Solo

----------------------------------------------------------------------------


Clean up Before She Comes

Written by Kurt Cobain
Transcribed by Billie Clark

Droped in D-Tuning

Verse #1 (Slow with Palm muted)
                                                                      Clean up Before She Comes.
E------------------------------------------------------------------------------------------------|
B------------------------------------------------------------------------------------------------|
G------------------------------------------------------------------------------------------------|
D------------------------------------------------------------------------------------------------|
A------------------------------------------------------------------------------------------------|
E-------X--X----X---X--X---X--X----X-----0--11--12---0--11--12---0--11--12---0--3--0--3--0-------|

				            Clean up Before She Comes.
E-----------------------------------------------------------------------------------------------|
B-----------------------------------------------------------------------------------------------|
G-----------------------------------------------------------------------------------------------|
D-----------------------------------------------------------------------------------------------|
A-----------------------------------------------------------------------------------------------|
E---------0--11--12---0--11--12---0--11--12---0--11--12---0--11--12---0--3--0--3--0-------------|

** You Hear The Song You Can Easily Play This Directly on the Note**
Chorus #1

E-----------------------------------------------------------------------------------------------------|
B-----------------------------------------------------------------------------------------------------|
G-----------------------------------------------------------------------------------------------------|
D-5--X--5---5--5--5-->>--8--X--8---8--8--8--------11--12-------11--12-------11--12-----0--3--0--3--0--|
A-5--X--5---5--5--5-->>--8--X--8---8--8--8-----0--11--12----0--11--12----0--11--12-----0--3--0--3--0--|
E-5--X--5---5--5--5-->>--8--X--8---8--8--8-----0--11--12----0--11--12----0--11--12-----0--3--0--3--0--|

E---------------------------------------------------------------------------------------|
B---------------------------------------------------------------------------------------|
G---------------------------------------------------------------------------------------|
D-5--X--5---5--5--5-->>--8--X--8---8--8--8---------7--7--7--7---4---7--7--7--7-->>---10-|
A-5--X--5---5--5--5-->>--8--X--8---8--8--8---------7--7--7--7---4---7--7--7--7-->>---10-|
D-5--X--5---5--5--5-->>--8--X--8---8--8--8---------7--7--7--7---4---7--7--7--7-->>---10-|

play Riff #1
and #2 As you hear Kurt Play It In The Song.

----------------------------------------------------------------------------

Tabbed By K.cobain_RIP

About a Girl

Intro/Verse/Outro

|---------------|
|---------------|
|---------------|
|-2-2---0-0-0---|   Play over as many times as needed
|-2-2---2-2-2---|
|-0-0---3-3-3---|

Chorus                              Post Chorus

|--------------------|-----|       |------------------------|
|--------------------|-----|       |------------------------|
|-6-6----------------|-----|       |-----9-9-9-------5--5-5-|
|-6-6-6-6-X--4-4-X-4-|-4-4-|       |-2-2-9-9-9-7-7-X-5--5-5-|
|-4-4-6-6-X--4-4-X-4-|-4-4-|       |-2-2-7-7-7-7-7-X-3--3-3-|
|-----4-4-X--2-2-X-2-|-2-2-|       |-0-0-------5-5-X--------|


Intro
Verse
Chorus
Post Chorus
Verse
Chorus
Post Chorus
Verse
Chorus
Post Chorus
1 Bar of verse
Post Chorus (play C Chord for longer)
Verse

----------------------------------------------------------------------------

Blandest
Nirvana
Tabbed by Doug Garvey.

-------------------
Tune half step down.
B
  = A fast bending action, but with vibrato action.
V
It may be shown on different strings (B,V) but its really for the note which appears
below it.
-------------------


Intro.
E|------------------------------|------------------------------|
B|------------------------------|------------------------------|
G|------------------------------|------------------------------|
D|------------------------------|------------------------------|
A|-------------------6----------|------------------------------|
E|---7|let ring|-7/8---8-5------|------------------------------|

Verse.
E|------------------------------|------------------------------|
B|------------------------------|------------------------------|
G|------------------------------|------------------------------|
D|--------B---------------B-----|--------B---------------B-----|
A|----6---V-----------6---V-----|----6---V-----------6---V-----|
E|--8---8-5---------8---8-5-----|--8---8-5---------8---8-5-----|

Chorus.
E|--2---------------------------|--2---------------------------|
B|--2---------------------------|--2---------------------------|
G|--2---------------------------|--2---------------------------|
D|---------------------2--------|---------------------2--------|
A|----0-2-4-3-2-0-2-3-4-4-3-2-0-|----0-2-4-3-2-0-2-3-4-4-3-2-0-|
E|2-----------------------------|2-----------------------------|

Bridge.
E|------------------------------|------------------------------|
B|------------------------------|------------------------------|
G|------------------------------|------------------------------|
D|-B-B-B-B--B-B-B---------------|-B-B-B-B--B-B-B---------------|
A|-V-V-V-V--V-V-V---------------|-V-V-V-V--V-V-V---------------|
E|-8-8-8/5--5-5-5---------------|-8-8-8/5--5-5-5---------------|

Solo.
E|------------------------------|------------------------------|
B|------------------------------|------------------------------|
G|-------B-BB--BB-BB-BB---------|------------------------------|
D|----BB-V-VV--VV-VV-VV---------|------------------------------|
A|----VV-8/12--12-12-12---------|------------------------------|
E|----88------------------------|--88-8/5--5-5-5---------------|

Outro/Bridge.            These Scratches are around the 17 frets.
E|------------------------------|------------xxxxxxx-----------|
B|------------------------------|------------xxxxxxx-----------|
G|------------------------------|------------xxxxxxx-----------|
D|-10-10--7-777-----------------|-10-10--7-7/xxxxxxx-----------|
A|-10-10--7-777-----------------|-10-10--7-7/------------------|
E|-8--8---5-555-----------------|-8--8---5-5/------------------|

Outro.
E|------------------------------|------------------------------|
B|------------------------------|------------------------------|
G|------------------------------|------------------------------|
D|-10-10--7-777-----------------|------------------------------|
A|-10-10--7-777-----------------|------------------------------|
E|-8--8---5-555-----------------|-2----------------------------|

----------------------------------------------------------------------------

Ain't It A Shame

Transcribed by K.cobain_RIP

(E)Ain't it a shame to go fishing on a Sunday ain't it a shame.
(B)Ain't it a shame to go fishing on a Sunday ain't it a shame.
(E)Ain't it a shame to go fishing on a sunday...
(A)When you got Monday tuesday wednesday...
(E)Or thursday friday saturday ain't it a shame

Same for next two verses

----------------------------------------------------------------------------

Tabbed by: onlyonehere

SAPPY


VERSE (X4)
e|-------------------------------------------------------------------------|
B|-------------------------------------------------------------------------|
G|--6-6-6-6-6---2-2-2----------------------2-2-2---4-4-4-4-----------------|
D|--6-6-6-6-6---2-2-2--4-4-4-4---6-6-6-6---2-2-2---4-4-4-4-----------------|
A|--4-4-4-4-4---0-0-0--4-4-4-4---6-6-6-6---0-0-0---2-2-2-2-----------------|
E|---------------------2-2-2-2---4-4-4-4-----------------------------------|

CHORUS                                      x3
e|---------------|----------------------------|----------------------------|
B|---------------|-.------------------------.-|----------------------------|
G|--6-6-6-6-6-6--|---2-2-2-2-2-2--------------|-2-2-2-2-2------------------|
D|--6-6-6-6-6-6--|---2-2-2-2-2-2--4-4-4-4-4---|-2-2-2-2-2---R E S T--------|
A|--4-4-4-4-4-4--|-.-0-0-0-0-0-0--4-4-4-4-4-.-|-0-0-0-0-0------------------|
E|---------------|----------------2-2-2-2-2---|----------------------------|

REPEAT VERSE (X4)
REPEAT CHORUS

SOLO
e|-------------------------------------------------------------------------|
B|-------------------------------------------------------------------------|
G|-------------------4-4-6-6-6-8-8-8-8-8b-8-6-8-8b-8b-8-6------------------|
D|-------2-4/6--4-6--------------------------------------------------------|
A|--2/4---------------------------------------------------1-2-2-1----------|
E|-----------------------------------------------------------------4-2-----|

e|-------------------------------------------------------------------------|
B|-------------------------------------------------------------------------|
G|-------------------------------------------------------------------------|
D|-------------------------------------------------------------------------|
A|----------------------------------------------------------11-13-13-14----|
E|--2-0-2-2b-0-0-0-0-2-2-2-4-4-4-6-6-7-7-9-9-11-11-11-11b-9----------------|


e|-------------------------------------------------------------------------|
B|-------------------------------------------------------------------------|
G|-------------------11-11------11b-11-------------------------------------|
D|-----11-11-14--14---------14----------14--11---13-14-14-14--13--13-------|
A|--14---------------------------------------------------------------------|
E|-------------------------------------------------------------------------|

e|-------------------------------------------------------------------------|
B|-------------------------------------------------------------------------|
G|-------------------------------------------------------------------------|
D|--11-11-11-11-11-11-13-14-14-13-14-13-11-11--11/13--13-13\11-11\9--------|
A|-------------------------------------------------------------------------|
E|-------------------------------------------------------------------------|

e|------------------|
B|------------------|
G|------------------|
D|------------------|
A|--9\8-8\6-6\4-4---|
E|------------------|

REPEAT CHORUS
REPEAT VERSE
REPEAT CHORUS

----------------------------------------------------------------------------

Tabbed by: jonathanr

Opinion
->half step down

eb|---------------------------|
Bb|---------------------------|
Gb|-4-4-0-------0-7-7-0-------|
Db|-4-4-0-5-5-5-0-7-7-0-4-4-4-|
Ab|-2-2-0-5-5-5-0-5-5-0-4-4-4-|
Eb|-------3-3-3---------2-2-2-|

---------------------------------------------------------------------------

Tabbed by: jonathanr

Lithium
->half step down

Intro/verse
eb|-----------------------------------------------|
Bb|-----------------------------------------------|
Gb|-----------6-6-------5-5-5/7-7-7-0-4-4-4/7-7-7-|
Db|---X-X-6-X-6-6-7-7-7-5-5-5/7-7-7-0-4-4-4/7-7-7-|
Ab|---X-X-6-X-4-4-7-7-7-3-3-3/5-5-5-0-2-2-2/5-5-5-|
Eb|-0-X-X-4-X-----5-5-5---------------------------|

Chorus
eb|-----------------------------------------------|
Bb|-----------------------------------------------|
Gb|-------------6-6-6-----5-5-5/7-7-7-4-4-4/7-7-7-|
Db|-2-2-2-6-6-6-6-6-6-7-7-5-5-5/7-7-7-4-4-4/7-7-7-|
Ab|-2-2-2-6-6-6-4-4-4-7-7-3-3-3/5-5-5-2-2-2/5-5-5-|
Eb|-0-0-0-4-4-4-------5-5-------------------------|

----------------------------------------------------------------------------

Tabbed by: jonathanr

Sliver

Verse
e|---------------------------|
B|---------------------------|
G|-4-4-4-X-----X-4-4-X-------|
D|-4-4-4-X-2-2-X-4-4-x-6-6-6-|
A|-2-2-2-X-2-2-X-2-2-X-6-6-6-|
E|---------0-0---------4-4-4-|

Chorus
e|-------------|
B|-------------|
G|-------4-4-4-|
D|-6-6-6-4-4-4-|
A|-6-6-6-2-2-2-|
E|-4-4-4-------|

---------------------------------------------------------------------------

Tabbed by: jonathanr

Smells Like Teen Spirit

Intro/ Chorus
e|--------------------------------------------|
B|--------------------------------------------|
G|---------------3-3-----------------6-6------|
D|-3-3-3-X-X-X-X-3-3-0-6-6-6-X-X-X-X-6-6------|
A|-3-3-3-X-X-X-X-1-1-0-6-6-6-X-X-X-X-4-4------|
E|-1-1-1-X-X-X-X-----0-4-4-4-X-X-X-X----------|

Verse
e|------1~~~~~-|
B|-1~~~~-------|
G|-------------|
D|-------------|
A|-------------|
E|-------------|

End of Chorus
                1st  2nd
e|-------------|---|---------|
B|-------------|---|---------|
G|-------------|---|---------|
D|-3-3-X-X-4-4-|-8-|-8-8-6-6-|
A|-3-3-X-X-4-4-|-8-|-8-8-6-6-|
E|-1-1-X-X-2-2-|-6-|-6-6-4-4-|

----------------------------------------------------------------------------

Tabbed by: hi72

Guitarist:Kurt Cobain
Band:Nirvana
Song:Come As You Are
Album:Nevermind
Tuning: whole step down
(D-C-G-F-A-D)
v=vibrato
/=slide
b=bend

Main Riff
D|------------------------------------------|
A|------------------------------------------|
F|------------------------------------------|
C|------------------------------------------|
G|--------------0---0----------2------2-0---|
D|----0-0-1--2----2---2-2-1-0----0--0------1|


Bridge 1/2
D|---------0-----------------------------------|
A|---------0-----------------------------------|
F|--------------------2--2--2--2----2--2--2----|
C|--4-4-4-----4-4-4---2--2--2--2----2--2--2----|
G|--4-4-4-----4-4-4---0--0--0--0----0--0--0----|
D|--2-2-2-----2-2-2----------------------------|


Bridge 3
D|--------------------------------------|
A|-------------------3-3-3-3--3-3-3-----|
F|--4-4-4-4v-4-4-4---2-2-2-2--2-2-2-----|
C|--4-4-4-4v-4-4-4---0-0-0-0--0-0-0-----|
G|--2-2-2-4v-2-2-2---0-0-0-0--0-0-0-----|
D|--------------------------------------|


Solo
D|----------2v-|---------2v-|---------2v-|--4v--2-----|
A|--2v--5---2v-|--2v--5--2v-|--2v--5--2v-|--2v--2--5v-|
F|--2v--2------|--2v--2-----|--2v--2-----|---------2v-|
C|-------------|------------|------------|------------|
G|-------------|------------|------------|------------|
D|-------------|------------|------------|------------|

or
D|-------------------------------------------------------|
A|-------------------------------------------------------|
F|-6v--9v-11v/6--6v--9v-11v/6--6v--9v-11-11b-11-11-9-9/6-|
C|-------------------------------------------------------|
G|-------------------------------------------------------|
D|-------------------------------------------------------|


End
D|----|
A|----|
F|----|
C|--4-|
G|--4-|
D|--2-|

----------------------------------------------------------------------------

Tabbed by: jonathanr

 Old Age
->Normal

  Chords
   E C G A B
e|-0-0-3-0---|
B|-0-1-0-2-4-|
G|-1-0-0-2-4-|
D|-2-2-0-2-4-|
A|-2-3-2-0-2-|
E|-0---3-0---|

Intro:
E---C---E---C----

Verse:
E---C---E---C---G---A---C---

Chorus:
E---C---E---C---E---C---E---C---A----E---A----E

Bridge:
B---C---G---

---------------------------------------------------------------------------

Tabbed by: jonathanr

Oh The Guilt
->Normal

Beginning
e|-0-0-0-|
B|-0-0-0-|
G|-0-0-0-|
D|-0-0-0-|
A|-0-0-0-|
E|-0-0-0-|
^^^^^play behind bridge

Intro/verse
e|----------------|
B|----------------|
G|----------------|
D|-6-6-6-X-X-/5-5-|
A|-6-6-6-X-X-/5-5-|
E|-4-4-4-X-X-/3-3-|

Chorus
e|---------------------------|
B|---------------------------|
G|---------------4-4-4-------|
D|-6-6-6-4-3-3-3-4-4-4-------|
A|-6-6-6-4-3-3-3-2-2-2-------|
E|-4-4-4-2-1-1-1-------0-3-4-|

----------------------------------------------------------------------------

Tabbed By K.cobain_RIP

Rape Me (Home Demo)

e-------------------------------------------------------------------------|
b-------------------------------------------------------------------------|
g--2---2----5-5---5-5-----------------------------------------------------|
d--2---2----5-5---5-5-----2---2---0-5-5---5-5-----------------------------|
a--0---0----3-3---3-3-----2---2---0-5-5---5-5-----------------------------|
e-------------------------0---0---0-3-3---3-3-----------------------------|

just repeats over and over

----------------------------------------------------------------------------

Tabbed by 90slithium

Rape Me

TUNING:

down 1/2 step

INTRO/CHORUS/2nd and 3rd VERSES
e-----------------------------0---0--0-------------------------------------|
b-----------------------------0---0--0---3-3---3-3-------------------------|
g--2---2--2---5-5---5-5-0-0--------------0-0---0-0-0-0---------------------|
d--2---2--2-0-5-5---5-5-0-0---2---2--2-0-0-0---0-0-0-0---------------------|
a--0---0--0-0-3-3---3-3-0-0---2---2--2-0-----------0-0---------------------|
e-----------0-----------0-0---0---0--0-0-3-3---3-3-0-0---------------------|

1ST VERSE
e--------------------------------------------------------------------------|
b--------------------------------------------------------------------------|
g----2-----5---------------------------------------------------------------|
d----2---5-5-0-----2------5------------------------------------------------|
a-0---0-3----0-----2----5-5-0----------------------------------------------|
e----------------0--0-3-----0----------------------------------------------|

3 times, then...
e--------------------------------------------------------------------------|
b---------------------3-3-3-3----------------------------------------------|
g----2-----5----------0-0-0-0----------------------------------------------|
d----2---5-5-0-----2--0-0-0-0----------------------------------------------|
a-0---0-3----0-----2-------------------------------------------------------|
e----------------0--0-3-3-3-3----------------------------------------------|
		    w/dist.

BRIDGE
e--------------------------------------------------------------------------|
b--------------------------------------------------------------------------|
g-6-6-6-6-6-6-6-6----------------------------------------------------------|
d-6-6-6-6-6-6-6-6---7-7-7-7-5-4-3------------------------------------------|
a-4-4-4-4-4-4-4-4---7-7-7-7-5-4-3------------------------------------------|
e-------------------5-5-5-5-3-2-1-0----------------------------------------|

4 times, then...
e----------------------------------------0---------------------------------|
b------------------------------------------0-------------------------------|
g-----------------------------------9--------------------------------------|
d-3--3-3---3-3-3---3/5--5-5--5-5-0--9--------------------------------------|
a-3--3-3---3-3-3---3/5--5-5--5-5-0--7--------------------------------------|
e-1--1-1---1-1-1---1/3--3-3--3-3-0--0--------------------------------------|

OUTRO CHORUS RIFF (second guitar)
e--------------------------------------------------------------------------|
b--------------------------------------------------------------------------|
g-2---2-2-5-5-5-7---9---9--------------------------------------------------|
d-2---2-2-5-5-5-7---9---9--------------------------------------------------|
a-0---0-0-3-3-3-5---7---7-0---5-3-2----------------------------------------|
e-------------------0---0-0-3----------------------------------------------|

----------------------------------------------------------------------------


Tabbed by 90slithium

Heart-Shaped Box

TUNING:
Drop D


INTRO/VERSE
e--------------------------------------------------------------------------|
b--------------------------------------------------------------------------|
g-----2------------------------------2-------------------------------------|
d---2---2-----3----------0-------2-2---2-----3------/4-4---4----0----------|
a-0---------3---3----0-------0---0---------3---3-------------3-3-----------|
d---------3--------0---0---0---0---------3--------0------0-----------------|

LAST TIME BEFORE CHORUS
e--------------------------------------------------------------------------|
b--------------------------------------------------------------------------|
g-----2------------------------------2-------------------------------------|
d---2---2-----3----------0---------2---2-----3------4-4-4-4-4---0----------|
a--0---------3---3----0-------0---0---------3---3--------------3-0---------|
d---------3--------0---0---0---0---------3--------0------------------------|
						w/dist.
CHORUS (3 times)
e--------------------------------------------------------------------------|
b--------------------------------------------------------------------------|
g-2-2-4b5-----4b5------------*-4b5-----------------------------------------|
d-2-2-----3-3--------4-4-4-4-----------------------------------------------|
a-0-0-----3-3----------------3---------------------------------------------|
d---------3-3------0-------------------------------------------------------|
		let ring

LAST PART OF CHORUS
e--------------------------------------------------------------------------|
b--------------------------------------------------------------------------|
g--------------------------4b5=5=5r4----------------------------------0----|
d-3-3-3-3-3-3-3-3---0-----------------3-3-3-3-3-3-3-3-----4-4-4-4-----0----|
a-3-3-3-3-3-3-3-3---0-----------------3-3-3-3-3-3-3-3-------------3-3-0----|
d-3-3-3-3-3-3-3-3---0-----------------3-3-3-3-3-3-3-3---0------------------|

SOLO
e--------------------------------------------------------------------------|
b------8b10r8\6-----6b8r6\5--------5b6-r5-3-1-0----------------------------|
g--------------------------------------------------------------------------|
d-7-7-----------5-5------------3-3-----------------------------------------|
a--------------------------------------------------------------------------|
d--------------------------------------------------------------------------|
w/chorus

e--------------------------------------------------------------------------|
b--------------------------------------------------------------------------|
g-------------------------2------------------------------------------------|
d-2-----------------------2------------------------------------------------|
a-0-----------------------0------------------------------------------------|
d--------------------------------------------------------------------------|
	                dist. off          (chorus off for 3rd verse)

ENDING OF LAST CHORUS
e--------------------------------------------------------------------------|
b--------------------------------------------------------------------------|
g--------------------------4b5=5=5r4---------------------------------------|
d-3-3-3-3-3-3-3-3---0------------------------------------------------------|
a-3-3-3-3-3-3-3-3---0------------------------------------------------------|
d-3-3-3-3-3-3-3-3---0------------------------------------------------------|

e--------------------------------------------------------------------------|
b--------------------------------------------------------------------------|
g--------------------------------------------------------------------------|
d-3-3-3-3-3-3-3-3-----4-4-4-4----------------------------------------------|
a-3-3-3-3-3-3-3-3-------------3-3-3----------------------------------------|
d-3-3-3-3-3-3-3-3---0------------------------------------------------------|

----------------------------------------------------------------------------

Tabbed by 90slithium

Do Re Mi

TUNING:

Standard full step down

VERSE

   E5               G#5              C#5              F#5
e----------------------------------------------------------------------|
b--9-----9-9-9-9---------------------------6---------------------------|
g--9---x-9-9-9-9----------6----------6---x-6-6-6-6----------4----------|
d--9---x-9-9-9-9-0--6---x-6-6-6-6-0--6---x-6-6-6-6-0--4---x-4-4-4-4-0--|
a--7---x-7-7-7-7-0--6---x-6-6-6-6-0--4---x-4-4-4-4-0--4---x-4-4-4-4-0--|
e----------------0--4---x-4-4-4-4-0----------------0--2---x-2-2-2-2-0--|

PRE CHORUS

   B5                       A5 C#5 C5
e------------------------------------|
b------------------------------------|
g--4---x-4-4---x-4--4---x-4-2---6-5--|
d--4---x-4-4---x-4--4---x-4-2-0-6-5--|
a--2---x-2-2---x-2--2---x-2-0-0-4-3--|
e------------------------------------|

    F#5                              E                 D5
e----------------------------------------------------------------------|
b------------------------------------9---------------------------------|
g------------------------------------9------------------7-7-7-7-7-7----|
d--4---x-4-4---x-4--4---x-4---4-4-0--9------------------7-7-7-7-7-7-0--|
a--4---x-4-4---x-4--4---x-4---4-4-0--7------------------5-5-5-5-5-5-0--|
e--2---x-2-2---x-2--2---x-2---2-2-0---------------------------------0--|

CHORUS
G#                  E
e------------------------------------|
b-------------------9---x-9-9-9-9----|
g-------------------9---x-9-9-9-9----|
d--6---x-6-6-6-6-0--9---x-9-9-9-9-0--|
a--6---x-6-6-6-6-0--7---x-7-7-7-7-0--|
e--4---x-4-4-4-4-0----------------0--|

POSTCHORUS
e-------------------|
b-------------------|
g-------------------|
d--2-1--------------|
a------4-2-0--------|
e------------4-2-0--|

----------------------------------------------------------------------------

Tabbed by 90slithium

You Know You're Right


TUNING:

1/2 step down

INTRO/VERSE
e--------------------------------------------------------------------------|
b--------------------------------------------------------------------------|
g--------------------------------------------------------------------------|
d--------------4-----------------------------------------------------------|
a-----4---4-------4-----4----4-----4---4----4--4-----4----4----------------|
e-0h2---2----0------2---2p0-0--0h2---2----0------2---2p0-0-----------------|


VERSE AND CHORUS END
e--------------------------------------------------------------------------|
b--------------------------------------------------------------------------|
g-7---7--7-7---7-7-7--7-7-7-/-9---9--9-9---9-9-9--9-9-9-0------------------|
d-7---7--7-7---7-7-7--7-7-7-/-9---9--9-9---9-9-9--9-9-9-0------------------|
a-5---5--5-5---5-5-5--5-5-5-/-7---7--7-7---7-7-7--7-7-7-0------------------|
e--------------------------------------------------------------------------|

CHORUS
e--------------------------------------------------------------------------|
b--------------------------------------------------------------------------|
g--------------------------------------------------------------------------|
d--4---4-4-4-4-4-4--4-4-4--4-4-4-4-----------------------------------------|
a--4---4-4-4-4-4-4--4-4-4--4-4-4-4-----------------------------------------|
e--0p2-2-2-2-0-0-0--2-2-2--2-2-0-0-----------------------------------------|

----------------------------------------------------------------------------

Tabbed by 90slithium

All Apologies

TUNING:

Drop D

INTRO/VERSES/OUTRO
e--------------------------------------------------------------------------|
b--------------------------------------------------------------------------|
g--------------------------------------------------------------------------|
d--------------------------------/12-12-10-9-------------------------------|
a-9-9-10-9-/12-12-10-9---9-9-10-9-------------9-9-10-9-/12-12-10-9---------|
e-0----------------------0-0-0--0-------------0------0--0------------------|

e--------------------------------------------------------------------------|
b--------------------------------------------------------------------------|
g-----------11-11-9--------------------------------------------------------|
d--------------0----12-----------------------------------------------------|
a--9-9-10-9----------------------------------------------------------------|
e--0-0-0--0----------------------------------------------------------------|

CHORUS
e--------------------------------------------------------------------------|
b--------------------------------------------------------------------------|
g--------------------------------------------------------------------------|
d-5-5-5-5-5-5-5------------------------------------------------------------|
a-5-5-5-5-5-5-5------------------------------------------------------------|
e-5-5-5-5-5-5-5------------------------------------------------------------|

and then
e--------------------------------------------------------------------------|
b--2-----------------------------------------------------------------------|
g--2-----------------------------------------------------------------------|
d--2-----------------------------------------------------------------------|
a--0-----------------------------------------------------------------------|
e--------------------------------------------------------------------------|
Suggest correction
comments
print report bad tab
3 comments total.
0 reply
Teen Spirit 656 Jul 13, 2007 03:48 PM

good effort stealing other people's tabs, but overall, the only tabs you did were shit, the rest was other peoples' work which wasn't bad. but good effort anyway.

0 reply
ben bobby oh 130 Dec 07, 2008 02:41 PM

Hum'na Hum'na

0 reply
mnhockey99 10 Feb 02, 2009 05:46 PM

Grandma take me home.....

guest
You may want to rate the tab now too:
select rating
Wanna post a correction for this tab? Suggest correction