Oops, an error
Loading. Please wait.
We have an official Sliver tab made by UG professional guitarists. Check out the tab »
×
86,766 views 111 this week
22 commentsread comments
1 2 3 4 5
x 82
add to favorites
launch autoscroll
font size
0
reset
guitar tuner
backing track
0:00
0:00
×
Best way to learn
"Sliver"
Autoscroll
slow
fast
+/-
esc
set tempo
stop
                   Sliver 
                 by Nirvana


This would appear to be played through the whole song:

G-----------------------------|---------------------------|
D-----------------------------|---------------------------|
A--3--3-3--------3--3-0-----2-|-3--3-3-------3--1-0-----2-|
E---------1--1-1--------3-5---|-------1--1-1--------3-5---|

Suggest correction
comments
print report bad tab
22 comments total. Showing first comments.
+2 reply
guitar_freak333 40 Oct 24, 2003 08:00 PM

awesome
song
ok
tab
good
band
rock
on

0 reply
guitar_freak333 40 Feb 06, 2004 07:00 PM

hey its me

+3 reply
pwoods1 220 Aug 23, 2004 08:00 PM

It's good, but I prefer this:

e--------------------------------
b--------------------------------
g--------------------------------
d--------------------------------
a--3--3-3----------3--3-0-----0-1
e----------1--1-1----------3-----

But your's sounds good too.

guest
You may want to rate the tab now too:
select rating
Wanna post a correction for this tab? Suggest correction