Oops, an error
Loading. Please wait.

Sliver Tab

version 1
version 1

Whole song

84,066 views 45 this week
11 commentsread comments
1 2 3 4 5
x 29
add to favorites
launch autoscroll
font size
0
reset
how to read this tab
guitar tuner
Autoscroll
slow
fast
+/-
esc
set tempo
stop
Help us to improve Ultimate-Guitar.com Take our survey!
×
[Intro]
is on bass then chourus is

[Chorus]
(w/distortion):

e|-----------------------------------------------------------------|
B|-----------------------------------------------------------------|
G|----------5-5-5-5------------------------------------------------|
D|--7-7-7-7-5-5-5-5------------------------------------------------|
A|--7-7-7-7-3-3-3-3------------------------------------------------|
E|--5-5-5-5--------------------------------------------------------|


[Verse]
(clean):

e|------------------------------------------------------------------|
B|------------------------------------------------------------------|
G|--5-5-5---------5-------------------------------------------------|
D|--5-5-5--3-3-3--5-8-7-5-7-8---------------------------------------|
A|--3-3-3--3-3-3--3-8-7-5-7-8---------------------------------------|
E|---------1-1-1----6-5-3-5-6---------------------------------------|


[Chorus]
(w/distortion):

e|-----------------------------------------------------------------|
B|-----------------------------------------------------------------|
G|----------5-5-5-5------------------------------------------------|
D|--7-7-7-7-5-5-5-5------------------------------------------------|
A|--7-7-7-7-3-3-3-3------------------------------------------------|
E|--5-5-5-5--------------------------------------------------------|


[Verse]
(w/distortion):

e|------------------------------------------------------------------|
B|------------------------------------------------------------------|
G|--5-5-5---------5-------------------------------------------------|
D|--5-5-5--3-3-3--5-8-7-5-7-8---------------------------------------|
A|--3-3-3--3-3-3--3-8-7-5-7-8---------------------------------------|
E|---------1-1-1----6-5-3-5-6---------------------------------------|


[Chorus]
(w/distortion):

e|-----------------------------------------------------------------|
B|-----------------------------------------------------------------|
G|----------5-5-5-5------------------------------------------------|
D|--7-7-7-7-5-5-5-5------------------------------------------------|
A|--7-7-7-7-3-3-3-3------------------------------------------------|
E|--5-5-5-5--------------------------------------------------------|


[Last verse]

e|--------------------------------------------|
B|--------------------------------------------|
G|--5----5----5-------------------------------|
D|--5----5----5-------------------------------|
A|--3----3----3-------------------------------|
E|--------------------------------------------|

[Chorus]
(w/distortion):

e|-----------------------------------------------------------------|
B|-----------------------------------------------------------------|
G|----------5-5-5-5------------------------------------------------|
D|--7-7-7-7-5-5-5-5------------------------------------------------|
A|--7-7-7-7-3-3-3-3------------------------------------------------|
E|--5-5-5-5--------------------------------------------------------|


[End on]

e|---------------------------------------|
B|---------------------------------------|
G|---5-----------------------------------|
D|---5-----------------------------------|
A|---3-----------------------------------|
E|---------------------------------------|
Suggest correction
comments
print report bad tab
11 comments total. Showing first comments.
0 reply
vmhsdude2K5 10 Jan 24, 2004 12:00 AM

Your tab is way better than the other one. You know how read unlike the other guy who called chords, tabs. So that is why I give you 5stars for this tab

0 reply
puddler 40 Mar 03, 2004 12:00 AM

people are so stupid.04/08/94 lest we forget

-1 reply
SsPunk 120 May 26, 2004 12:00 AM

i just play

G|5--55-------5--5-2--2-2-2-|
D|5--55-3--33-5--5-2--2-2-2-|
A|3--33-3--33-3--3-0--0-----|
E|------1--11---------------|

guest
You may want to rate the tab now too:
select rating
Wanna post a correction for this tab? Suggest correction