Oops, an error
Loading. Please wait.

Sliver Bass Tab

version 2
version 2

Whole song

29,978 views 24 this week
10 commentsread comments
1 2 3 4 5
x 34
add to favorites
launch autoscroll
font size
0
reset
guitar tuner
Autoscroll
slow
fast
+/-
esc
set tempo
stop
Help us to improve Ultimate-Guitar.com Take our survey!
×
Author
NIRVANA
SLIVER
_____________________________________________________________________________

Bass Intro And Verse:
G:-----------------------------||
D:-----------------------------||
A:-3--3-3--------3-3-----------||
E:--------1--1-1------5-5-4-5--||


Chorus:
G:---------------------------------||
D:---------------------------------||
A:---------3-3-3-3---------3-3-3-3-||
E:-5--5-5----------5--5-5----------||
                         'Grandma take me home...'
BY MATTY
PLEASE rate this tab!
Suggest correction
comments
print report bad tab
10 comments total. Showing first comments.
+4 reply
SsPunk 120 Aug 03, 2004 12:00 AM

Verse:

A|-3---3-3---------3---3-0------0-1-|
E|---------1---1--------------3-----|


A|-3---3-3---------3---1-0------0-1-|
E|---------1---1-1------------3-----|

0 reply
shredfreak93 30 Mar 02, 2009 07:29 PM

thats right through the verses but its not the chorus

0 reply
Swordacool 10 Apr 07, 2009 01:42 PM

yeah, where's the chorus man?
lol, and it sounds like he plays the same not over for the chorus, just saying if u add it xD

guest
You may want to rate the tab now too:
select rating
Wanna post a correction for this tab? Suggest correction