Oops, an error
Loading. Please wait.

Sliver Tab

version 3
version 3

Whole song

4,468 views 3 this week
no commentswrite comment
1 2 3 4 5
excellent!
x 4
add to favorites
launch autoscroll
font size
0
reset
how to read this tab
guitar tuner
Tab Pro tools
  • play this tab
  • loop segment
  • change instrument
  • show fretboard
  • metronome
×
Best way to learn
"Sliver"
Autoscroll
slow
fast
+/-
esc
set tempo
stop
Contributor
hey it's guitar2player w/ another nirvana tab...
Most fo Nirvanas stuff is Half-step down so i think it's half step down but it's 
up to you it sounds fine in standard to have fun!

Legend:
/ = slide into
~ = let ring
* = distortion feedback

Bass intro.. which is simple:
|--------------------------|
|--------------------------|
|-3-3-0-------3-3/1-0-0-0--|
|-------1-1-0--------------|

Chorus:
|--------------------------------------------------|  feedback 1st time only
|*-2-----------2-----------2-----------2-----------|
|*-2--5-5-5-5--2--5-5-5-5--2--5-5-5-5--2--5-5-5-5--|
|*-2--5-5-5-5--2--5-5-5-5--2--5-5-5-5--2--5-5-5-5--|x2
|*-0--3-3-3-3--0--3-3-3-3--0--3-3-3-3--0--3-3-3-3--|
|--------------------------------------------------|

Verse:
|----------------------------|
|---------------------2-2-2--|
|-5-5-5-0-------5-5/3-2-2-2--|
|-5-5-5-0-3-3-0-5-5/3-2-2-2--|x4
|-3-3-3-0-3-3-0-3-3/1-0-0-0--|
|---------1-1-0--------------|

Chorus:
|--------------------------------------------------| feedback 1st time only
|*-2-----------2-----------2-----------2-----------|
|*-2--5-5-5-5--2--5-5-5-5--2--5-5-5-5--2--5-5-5-5--|
|*-2--5-5-5-5--2--5-5-5-5--2--5-5-5-5--2--5-5-5-5--|x2
|*-0--3-3-3-3--0--3-3-3-3--0--3-3-3-3--0--3-3-3-3--|
|--------------------------------------------------|

Verse:
|----------------------------|
|---------------------2-2-2--|
|-5-5-5-0-------5-5/3-2-2-2--|
|-5-5-5-0-3-3-0-5-5/3-2-2-2--|x4
|-3-3-3-0-3-3-0-3-3/1-0-0-0--|
|---------1-1-0--------------|


Chorus:
|--------------------------------------------------| feedback 1st time only
|*-2-----------2-----------2-----------2-----------|
|*-2--5-5-5-5--2--5-5-5-5--2--5-5-5-5--2--5-5-5-5--|
|*-2--5-5-5-5--2--5-5-5-5--2--5-5-5-5--2--5-5-5-5--|x2
|*-0--3-3-3-3--0--3-3-3-3--0--3-3-3-3--0--3-3-3-3--|
|--------------------------------------------------|

Verse [3]
|---------------------|
|---------------------|
|-5-5-5---5-5-5---5~--|
|-5-5-5~--5-5-5~--5~--|x1
|-3-3-3~--3-3-3~--3~--|
|---------------------|


Last Chorus:
|--------------------------------------------------| feedback 1st time only
|*-2-----------2-----------2-----------2-----------|
|*-2--5-5-5-5--2--5-5-5-5--2--5-5-5-5--2--5-5-5-5--|
|*-2--5-5-5-5--2--5-5-5-5--2--5-5-5-5--2--5-5-5-5--|x4
|*-0--3-3-3-3--0--3-3-3-3--0--3-3-3-3--0--3-3-3-3--|
|--------------------------------------------------|

End in 

|-----|
|-2~--|
|-2~--|
|-2~--|
|-0~--|
|-----|


And thats it :D Rate !! 
comments
print report bad tab
I want to post or [tab]
guest
You may want to rate the tab now too:
select rating
Please do not post tabs as comments. Select "correction" instead!