Oops, an error
Loading. Please wait.

Smells Like Teen Spirit Bass Tab

version 1
703,827 views 645 this week
37 commentsread comments
1 2 3 4 5
x 160
add to favorites
launch autoscroll
font size
0
reset
guitar tuner
Autoscroll
slow
fast
+/-
esc
set tempo
stop
Help us to improve Ultimate-Guitar.com Take our survey!
×
Nirvana
Smells Like Teen Spirit
Author: Ricardo Fonseca


[Riff1]

G|----------------------------|
D|----------------------------|
A|-------1-1-0-------4-4-0----|
E|-1-1-1-------4-4-4----------|(4x)


[Riff2]

G|------------------------------------|
D|------------------------------------|
A|--------1-1-1-0----------4-4-4-3----| (10x)
E|1-1-1-1---------4-4-4-0-------------|
 
 
[Riff1]

G|----------------------------|
D|----------------------------|
A|-------1-1-0-------4-4-0----|
E|-1-1-1-------4-4-4----------| (6x)


[Riff3]

G|------------------------------|
D|------------------------------|
A|------------------------------|
E|1-1-0-0-2--1-1-0-0--4-4-------| (2x)


[Riff2]

G|------------------------------------|
D|------------------------------------|
A|--------1-1-1-0----------4-4-4-3----|
E|1-1-1-1---------4-4-4-0-------------| (10x)


[Riff1]

G|----------------------------|
D|----------------------------|
A|-------1-1-0-------4-4-0----|
E|-1-1-1-------4-4-4----------| (6x)


[Riff3]

G|------------------------------|
D|------------------------------|
A|------------------------------|
E|1-1-0-0-2--1-1-0-0--4-4-------| (2x)


[Riff2]

G|------------------------------------|
D|------------------------------------|
A|--------1-1-1-0----------4-4-4-3----|
E|1-1-1-1---------4-4-4-0-------------| (10x)


[Riff1]

G|----------------------------|
D|----------------------------|
A|-------1-1-0-------4-4-0----|
E|-1-1-1-------4-4-4----------| (8x)


[Riff2]

G|------------------------------------|
D|------------------------------------|
A|--------1-1-1-0----------4-4-4-3----|
E|1-1-1-1---------4-4-4-0-------------| (10x)


[Riff1]

G|----------------------------|
D|----------------------------|
A|-------1-1-0-------4-4-0----|
E|-1-1-1-------4-4-4----------| (10x)
Suggest correction
comments
print report bad tab
37 comments total. Showing first comments. show 1 bad comment
+6 reply
AshI_234 70 Oct 31, 2005 09:25 AM

nice tab, well i play but my bro plays bass and he cant be assed posting a comment so i am rock on

+5 reply
bigEsmalls 10 Dec 30, 2005 05:12 PM

close but not close enough

guest
You may want to rate the tab now too:
select rating
Wanna post a correction for this tab? Suggest correction