Oops, an error
Loading. Please wait.

Smells Like Teen Spirit Tab

version 1
460,856 views 1,236 this week
53 commentsread comments
1 2 3 4 5
x 183
add to favorites
launch autoscroll
font size
0
reset
how to read this tab
guitar tuner
Autoscroll
slow
fast
+/-
esc
set tempo
stop
Help us to improve Ultimate-Guitar.com Take our survey!
×
[Solo]

E|--------------------------------------------|
B|--------------------------------------------|
G|----8-10---8/8b\8-6-5-----------------------|
D|-10------6-----------11-10-8-6-11/11b\11-6-5|
A|--------------------------------------------|
E|--------------------------------------------|(x2)

E|--------------|
B|--------------|
G|--------------|
D|-6-5-6-5-6-5-3|
A|--------------|
E|--------------|

E|-------------------|
B|-------------------|
G|-------------------|
D|-6-5-6-5-6-5-6-5-3-|
A|-------------------|
E|-------------------|(x3)


**********************************

| /    slide up
| \    slide down
| b    bend

**********************************
Suggest correction
comments
print report bad tab
53 comments total. Showing first comments. show 1 bad comment
0 reply
Carsonp555 133 Oct 06, 2005 09:30 PM

very nice tab

+5 reply
HEADBANG^ 10 Oct 09, 2005 02:55 AM

E|--------------------------------------------
B|--------------------------------------------
G|----8-10---8/8b\8-6-5-----------------------
D|-10------6-----------11-10-8-6-11/11b\11-6-5
A|--------------------------------------------
E|--------------------------------------------

this isn't right. the last thing ''11/11b\11-6-5'' sounds awfull...

guest
You may want to rate the tab now too:
select rating
Wanna post a correction for this tab? Suggest correction