Oops, an error
Loading. Please wait.

Smells Like Teen Spirit Tab

921,127 views 1,938 this week
62 commentsread comments
1 2 3 4 5
x 117
add to favorites
launch autoscroll
font size
0
reset
how to read this tab
guitar tuner
Autoscroll
slow
fast
+/-
esc
set tempo
stop
Help us to improve Ultimate-Guitar.com Take our survey!
×
NIRVANA SMELLS LIKE TEEN SPIRIT.



F5- 133XXX
Bb5-X133XX
Ab5-466XX
Db5-X466XX

[INTRO]
       
         F5  Bb5  Ab5  Db5 X2 WITHOUT DISTORTION AND 4 WITH

[VERSES]

          e|--------------1----|
          B|-------1-----------|     
          G|-------------------| 
          D|-------------------| 
          A|-------------------| 
          E\-------------------| 
                                                   KURT PLAYS THIS THOROUGHOUT  THE VERSE AND WHEN
                                                  HE GETS TO THE END HE STRUMS IT [ JUST LISTEN TO IT ] 


[CHORUS] 

THE INTRO WITH DISTORTION { AFTER " MY LIBIDO " HE JUST BENDS THE Db5 }


[SOLO]


       e|------------------------------------------------------------------|
       B|------------------------------------------------------------------|
       G|------------8--10--------8 8 --6/5-6 5 ---------------------------|
       D|-------10-------------6----------------------8--6--8^8 -6/5-------|   PLAY THIS TWICE
       A|------------------------------------------------------------------|   THEN AFTER THE
       E|------------------------------------------------------------------|   SECOND TIME PLAY




       e|------------------------------------------------------------------|
       B|------------------------------------------------------------------|
       G|------------------------------------------------------------------|
       D---6--5---6--5----6---5--6-5/3---------6--5---6-5--6--5--6--5/3----|  
       A|------------------------------------------------------------------|
       E|------------------------------------------------------------------|      PLAY THIS 2 TIMES AND ON THE
                                                                                 LAST TIME HOLD THE 3



************************************

| b  Bend
| /  Slide up
| \  Slide down

************************************
Suggest correction
comments
print report bad tab
62 comments total. Showing first comments.
-2 reply
Guitar_Guy00001 40 Aug 23, 2005 12:00 AM

its an ok tab solo needs work though

0 reply
jplay5 10 Sep 25, 2005 04:02 PM

kinda bad

0 reply
jplay5 10 Sep 25, 2005 04:03 PM

solo, yeah, work on it

guest
You may want to rate the tab now too:
select rating
Wanna post a correction for this tab? Suggest correction