Oops, an error
Loading. Please wait.

Smells Like Teen Spirit Tab

72,229 views 42 this week
9 commentsread comments
1 2 3 4 5
x 16
add to favorites
launch autoscroll
font size
0
reset
how to read this tab
guitar tuner
Autoscroll
slow
fast
+/-
esc
set tempo
stop
Help us to improve Ultimate-Guitar.com Take our survey!
×
Smells Like Teen Spirit 
Nirvana

Guitar 1
                                                                
e|-----------------------------|------------------------------|
B|--------------0-x-3--3-3-0-0-|-------------------6--6-6-x-0-|
G|--3---3-3---x-0-x-3--3-3-0-0-|--6---6-6----------6--6-6-x-0-|
D|--3---3-3---x-0-x-3--3-3-0-0-|--6---6-6--x-x-x-x-6--6-6-x-0-|
A|--3---3-3---x-----1--1-1-----|--6---6-6--x-x-x-x-4--4-4-x---|
E|--1---1-1---x----------------|--4---4-4--x-x-x-x------------|


                                                           
e|------------------------------|---------------------------|
B|-------------------3--3-3-0-0-|--------------------6-6\---|
G|--3----------------3--3-3-0-0-|--6---6-6-----------6-6\---|
D|--3---3-3--x-x-x-x-3--3-3-0-0-|--6---6-6--x-x-x--x-6-6\---|
A|--3---3-3--x-x-x-x-1--1-1-----|--6---6-6--x-x-x--x-4-4\---|
E|--1---1-1--x-x-x-x------------|--4---4-4--x-x-x--x--------|


                                                             
e|-----------------------------|------------------------------|
B|--------------0-x-3--3-3-0-0-|-------------------6--6-6-x-0-|
G|--3---3-3---x-0-x-3--3-3-0-0-|--6---6-6----------6--6-6-x-0-|
D|--3---3-3---x-0-x-3--3-3-0-0-|--6---6-6--x-x-x-x-6--6-6-x-0-|
A|--3---3-3---x-----1--1-1-----|--6---6-6--x-x-x-x-4--4-4-x---|
E|--1---1-1---x----------------|--4---4-4--x-x-x-x------------|


                                                            
e|------------------------------|----------------------------|
B|-------------------3--3-3-0-0-|-------------------6--6--6--|
G|--3----------------3--3-3-0-0-|--6---6-6----------6--6--6--|
D|--3---3-3--x-x-x-x-3--3-3-0-0-|--6---6-6--x-x-x-x-6--6--6--|
A|--3---3-3--x-x-x-x-1--1-1-----|--6---6-6--x-x-x-x-4--4--4--|
E|--1---1-1--x-x-x-x------------|--4---4-4--x-x-x-x----------|


                                                             
e|-----------------------------|------------------------------|
B|--------------0-x-3--3-3-0-0-|-------------------6--6-6-x-0-|
G|--3---3-3---x-0-x-3--3-3-0-0-|--6---6-6----------6--6-6-x-0-|
D|--3---3-3---x-0-x-3--3-3-0-0-|--6---6-6--x-x-x-x-6--6-6-x-0-|
A|--3---3-3---x-----1--1-1-----|--6---6-6--x-x-x-x-4--4-4-x---|
E|--1---1-1---x----------------|--4---4-4--x-x-x-x------------|


                                                            
e|------------------------------|----------------------------|
B|-------------------3--3-3-0-0-|-------------------6--6--6--|
G|--3----------------3--3-3-0-0-|--6---6-6----------6--6--6--|
D|--3---3-3--x-x-x-x-3--3-3-0-0-|--6---6-6--x-x-x-x-6--6--6--|
A|--3---3-3--x-x-x-x-1--1-1-----|--6---6-6--x-x-x-x-4--4--4--|
E|--1---1-1--x-x-x-x------------|--4---4-4--x-x-x-x----------|


                                                                                
e|---------1----------|------------------|---------1----------|------------------|
B|------1-------------|------------------|------1-------------|------------------|
G|--------------------|------------------|--------------------|------------------|
D|--------------------|------------------|--------------------|------------------|
A|--------------------|------------------|--------------------|------------------|
E|--------------------|------------------|--------------------|------------------|


                                                                                
e|---------1----------|------------------|---------1----------|------------------|
B|------1-------------|------------------|------1-------------|------------------|
G|--------------------|------------------|--------------------|------------------|
D|--------------------|------------------|--------------------|------------------|
A|--------------------|------------------|--------------------|------------------|
E|--------------------|------------------|--------------------|------------------|


                                                                                
e|---------1----------|------------------|---------1----------|------------------|
B|------1-------------|------------------|------1-------------|------------------|
G|--------------------|------------------|--------------------|------------------|
D|--------------------|------------------|--------------------|------------------|
A|--------------------|------------------|--------------------|------------------|
E|--------------------|------------------|--------------------|------------------|


                                                                                
e|---------1----------|------------------|---------1----------|------------------|
B|------1-------------|------------------|------1-------------|------------------|
G|--------------------|------------------|--------------------|------------------|
D|--------------------|------------------|--------------------|------------------|
A|--------------------|------------------|--------------------|------------------|
E|--------------------|------------------|--------------------|------------------|


                                                                                
e|---------1----------|------------------|---------1----------|------------------|
B|------1-------------|------------------|------1-------------|------------------|
G|--------------------|------------------|--------------------|------------------|
D|--------------------|------------------|--------------------|------------------|
A|--------------------|------------------|--------------------|------------------|
E|--------------------|------------------|--------------------|------------------|


                                                                     
e|-------1---------1----|-------1---------1----|-------1---------1----|
B|--1---------1---------|--1---------1---------|--1---------1---------|
G|----------------------|----------------------|----------------------|
D|----------------------|----------------------|----------------------|
A|----------------------|----------------------|----------------------|
E|----------------------|----------------------|----------------------|


                                                                     
e|-------1---------1----|-------1---------1----|-------1---------1----|
B|--1---------1---------|--1---------1---------|--1---------1---------|
G|----------------------|----------------------|----------------------|
D|----------------------|----------------------|----------------------|
A|----------------------|----------------------|----------------------|
E|----------------------|----------------------|----------------------|


                                                                            
e|-------1---------1----|-------1---------1----|-----------------------------|
B|--1---------1---------|--1---------1---------|--------------0-x-3--3-3-0-0-|
G|----------------------|----------------------|--3---3-3---x-0-x-3--3-3-0-0-|
D|----------------------|----------------------|--3---3-3---x-0-x-3--3-3-0-0-|
A|----------------------|----------------------|--3---3-3---x-----1--1-1-----|
E|----------------------|----------------------|--1---1-1---x----------------|


                                                              
e|------------------------------|------------------------------|
B|-------------------6--6-6-x-0-|-------------------3--3-3-0-0-|
G|--6---6-6----------6--6-6-x-0-|--3----------------3--3-3-0-0-|
D|--6---6-6--x-x-x-x-6--6-6-x-0-|--3---3-3--x-x-x-x-3--3-3-0-0-|
A|--6---6-6--x-x-x-x-4--4-4-x---|--3---3-3--x-x-x-x-1--1-1-----|
E|--4---4-4--x-x-x-x------------|--1---1-1--x-x-x-x------------|


                                                           
e|----------------------------|-----------------------------|
B|-------------------6--6--6--|--------------0-x-3--3-3-0-0-|
G|--6---6-6----------6--6--6--|--3---3-3---x-0-x-3--3-3-0-0-|
D|--6---6-6--x-x-x-x-6--6--6--|--3---3-3---x-0-x-3--3-3-0-0-|
A|--6---6-6--x-x-x-x-4--4--4--|--3---3-3---x-----1--1-1-----|
E|--4---4-4--x-x-x-x----------|--1---1-1---x----------------|


                                                              
e|------------------------------|------------------------------|
B|-------------------6--6-6-x-0-|-------------------3--3-3-0-0-|
G|--6---6-6----------6--6-6-x-0-|--3----------------3--3-3-0-0-|
D|--6---6-6--x-x-x-x-6--6-6-x-0-|--3---3-3--x-x-x-x-3--3-3-0-0-|
A|--6---6-6--x-x-x-x-4--4-4-x---|--3---3-3--x-x-x-x-1--1-1-----|
E|--4---4-4--x-x-x-x------------|--1---1-1--x-x-x-x------------|


                                                           
e|----------------------------|-----------------------------|
B|-------------------6--6--6--|--------------0-x-3--3-3-0-0-|
G|--6---6-6----------6--6--6--|--3---3-3---x-0-x-3--3-3-0-0-|
D|--6---6-6--x-x-x-x-6--6--6--|--3---3-3---x-0-x-3--3-3-0-0-|
A|--6---6-6--x-x-x-x-4--4--4--|--3---3-3---x-----1--1-1-----|
E|--4---4-4--x-x-x-x----------|--1---1-1---x----------------|


                                                              
e|------------------------------|------------------------------|
B|-------------------6--6-6-x-0-|-------------------3--3-3-0-0-|
G|--6---6-6----------6--6-6-x-0-|--3----------------3--3-3-0-0-|
D|--6---6-6--x-x-x-x-6--6-6-x-0-|--3---3-3--x-x-x-x-3--3-3-0-0-|
A|--6---6-6--x-x-x-x-4--4-4-x---|--3---3-3--x-x-x-x-1--1-1-----|
E|--4---4-4--x-x-x-x------------|--1---1-1--x-x-x-x------------|


                                                                                
e|----------------------------|------------------------|-------------------------|
B|-------------------6--6--6--|------------------------|-------------------------|
G|--6---6-6----------6--6--6--|-------------------3b---|-------------------------|
D|--6---6-6--x-x-x-x-6--6--6--|--3----2--3--4--4-------|--3----2--3/-8--8--8--6--|
A|--6---6-6--x-x-x-x-4--4--4--|--3----2--3--4--4-------|--3----2--3/-8--8--8--6--|
E|--4---4-4--x-x-x-x----------|--1----0--1--2--2-------|--1----0--1/-6--6--6--4--|


                                                                        
e|------------------------|-------------------------|---------1----------|
B|------------------------|-------------------------|------1-------------|
G|-------------------3b---|-------------------------|--------------------|
D|--3----2--3--4--4-------|--3----2--3/-8--8--8--6--|--------------------|
A|--3----2--3--4--4-------|--3----2--3/-8--8--8--6--|--------------------|
E|--1----0--1--2--2-------|--1----0--1/-6--6--6--4--|--------------------|


                                                                                
e|------------------|---------1----------|------------------|---------1----------|
B|------------------|------1-------------|------------------|------1-------------|
G|------------------|--------------------|------------------|--------------------|
D|------------------|--------------------|------------------|--------------------|
A|------------------|--------------------|------------------|--------------------|
E|------------------|--------------------|------------------|--------------------|


                                                                                
e|------------------|---------1----------|------------------|---------1----------|
B|------------------|------1-------------|------------------|------1-------------|
G|------------------|--------------------|------------------|--------------------|
D|------------------|--------------------|------------------|--------------------|
A|------------------|--------------------|------------------|--------------------|
E|------------------|--------------------|------------------|--------------------|


                                                                                
e|------------------|---------1----------|------------------|---------1----------|
B|------------------|------1-------------|------------------|------1-------------|
G|------------------|--------------------|------------------|--------------------|
D|------------------|--------------------|------------------|--------------------|
A|------------------|--------------------|------------------|--------------------|
E|------------------|--------------------|------------------|--------------------|


                                                                                
e|------------------|---------1----------|------------------|---------1----------|
B|------------------|------1-------------|------------------|------1-------------|
G|------------------|--------------------|------------------|--------------------|
D|------------------|--------------------|------------------|--------------------|
A|------------------|--------------------|------------------|--------------------|
E|------------------|--------------------|------------------|--------------------|


                                                           
e|------------------|---------1----------|------------------|
B|------------------|------1-------------|------------------|
G|------------------|--------------------|------------------|
D|------------------|--------------------|------------------|
A|------------------|--------------------|------------------|
E|------------------|--------------------|------------------|


                                                                     
e|-------1---------1----|-------1---------1----|-------1---------1----|
B|--1---------1---------|--1---------1---------|--1---------1---------|
G|----------------------|----------------------|----------------------|
D|----------------------|----------------------|----------------------|
A|----------------------|----------------------|----------------------|
E|----------------------|----------------------|----------------------|


                                                                     
e|-------1---------1----|-------1---------1----|-------1---------1----|
B|--1---------1---------|--1---------1---------|--1---------1---------|
G|----------------------|----------------------|----------------------|
D|----------------------|----------------------|----------------------|
A|----------------------|----------------------|----------------------|
E|----------------------|----------------------|----------------------|


                                                                            
e|-------1---------1----|-------1---------1----|-----------------------------|
B|--1---------1---------|--1---------1---------|--------------0-x-3--3-3-0-0-|
G|----------------------|----------------------|--3---3-3---x-0-x-3--3-3-0-0-|
D|----------------------|----------------------|--3---3-3---x-0-x-3--3-3-0-0-|
A|----------------------|----------------------|--3---3-3---x-----1--1-1-----|
E|----------------------|----------------------|--1---1-1---x----------------|


                                                              
e|------------------------------|------------------------------|
B|-------------------6--6-6-x-0-|-------------------3--3-3-0-0-|
G|--6---6-6----------6--6-6-x-0-|--3----------------3--3-3-0-0-|
D|--6---6-6--x-x-x-x-6--6-6-x-0-|--3---3-3--x-x-x-x-3--3-3-0-0-|
A|--6---6-6--x-x-x-x-4--4-4-x---|--3---3-3--x-x-x-x-1--1-1-----|
E|--4---4-4--x-x-x-x------------|--1---1-1--x-x-x-x------------|


                                                           
e|----------------------------|-----------------------------|
B|-------------------6--6--6--|--------------0-x-3--3-3-0-0-|
G|--6---6-6----------6--6--6--|--3---3-3---x-0-x-3--3-3-0-0-|
D|--6---6-6--x-x-x-x-6--6--6--|--3---3-3---x-0-x-3--3-3-0-0-|
A|--6---6-6--x-x-x-x-4--4--4--|--3---3-3---x-----1--1-1-----|
E|--4---4-4--x-x-x-x----------|--1---1-1---x----------------|


                                                              
e|------------------------------|------------------------------|
B|-------------------6--6-6-x-0-|-------------------3--3-3-0-0-|
G|--6---6-6----------6--6-6-x-0-|--3----------------3--3-3-0-0-|
D|--6---6-6--x-x-x-x-6--6-6-x-0-|--3---3-3--x-x-x-x-3--3-3-0-0-|
A|--6---6-6--x-x-x-x-4--4-4-x---|--3---3-3--x-x-x-x-1--1-1-----|
E|--4---4-4--x-x-x-x------------|--1---1-1--x-x-x-x------------|


                                                           
e|----------------------------|-----------------------------|
B|-------------------6--6--6--|--------------0-x-3--3-3-0-0-|
G|--6---6-6----------6--6--6--|--3---3-3---x-0-x-3--3-3-0-0-|
D|--6---6-6--x-x-x-x-6--6--6--|--3---3-3---x-0-x-3--3-3-0-0-|
A|--6---6-6--x-x-x-x-4--4--4--|--3---3-3---x-----1--1-1-----|
E|--4---4-4--x-x-x-x----------|--1---1-1---x----------------|


                                                              
e|------------------------------|------------------------------|
B|-------------------6--6-6-x-0-|-------------------3--3-3-0-0-|
G|--6---6-6----------6--6-6-x-0-|--3----------------3--3-3-0-0-|
D|--6---6-6--x-x-x-x-6--6-6-x-0-|--3---3-3--x-x-x-x-3--3-3-0-0-|
A|--6---6-6--x-x-x-x-4--4-4-x---|--3---3-3--x-x-x-x-1--1-1-----|
E|--4---4-4--x-x-x-x------------|--1---1-1--x-x-x-x------------|


                                                                                
e|----------------------------|------------------------|-------------------------|
B|-------------------6--6--6--|------------------------|-------------------------|
G|--6---6-6----------6--6--6--|-------------------3b---|-------------------------|
D|--6---6-6--x-x-x-x-6--6--6--|--3----2--3--4--4-------|--3----2--3/-8--8--8--6--|
A|--6---6-6--x-x-x-x-4--4--4--|--3----2--3--4--4-------|--3----2--3/-8--8--8--6--|
E|--4---4-4--x-x-x-x----------|--1----0--1--2--2-------|--1----0--1/-6--6--6--4--|


                                                   
e|------------------------|-------------------------|
B|------------------------|-------------------------|
G|-------------------3b---|-------------------------|
D|--3----2--3--4--4-------|--3----2--3/-8--8--8--6--|
A|--3----2--3--4--4-------|--3----2--3/-8--8--8--6--|
E|--1----0--1--2--2-------|--1----0--1/-6--6--6--4--|


                                                             
e|-----------------------------|------------------------------|
B|--------------0-x-3--3-3-0-0-|-------------------6--6-6-x-0-|
G|--3---3-3---x-0-x-3--3-3-0-0-|--6---6-6----------6--6-6-x-0-|
D|--3---3-3---x-0-x-3--3-3-0-0-|--6---6-6--x-x-x-x-6--6-6-x-0-|
A|--3---3-3---x-----1--1-1-----|--6---6-6--x-x-x-x-4--4-4-x---|
E|--1---1-1---x----------------|--4---4-4--x-x-x-x------------|


                                                            
e|------------------------------|----------------------------|
B|-------------------3--3-3-0-0-|-------------------6--6--6--|
G|--3----------------3--3-3-0-0-|--6---6-6----------6--6--6--|
D|--3---3-3--x-x-x-x-3--3-3-0-0-|--6---6-6--x-x-x-x-6--6--6--|
A|--3---3-3--x-x-x-x-1--1-1-----|--6---6-6--x-x-x-x-4--4--4--|
E|--1---1-1--x-x-x-x------------|--4---4-4--x-x-x-x----------|


                                                             
e|-----------------------------|------------------------------|
B|--------------0-x-3--3-3-0-0-|-------------------6--6-6-x-0-|
G|--3---3-3---x-0-x-3--3-3-0-0-|--6---6-6----------6--6-6-x-0-|
D|--3---3-3---x-0-x-3--3-3-0-0-|--6---6-6--x-x-x-x-6--6-6-x-0-|
A|--3---3-3---x-----1--1-1-----|--6---6-6--x-x-x-x-4--4-4-x---|
E|--1---1-1---x----------------|--4---4-4--x-x-x-x------------|


                                                            
e|------------------------------|----------------------------|
B|-------------------3--3-3-0-0-|-------------------6--6--6--|
G|--3----------------3--3-3-0-0-|--6---6-6----------6--6--6--|
D|--3---3-3--x-x-x-x-3--3-3-0-0-|--6---6-6--x-x-x-x-6--6--6--|
A|--3---3-3--x-x-x-x-1--1-1-----|--6---6-6--x-x-x-x-4--4--4--|
E|--1---1-1--x-x-x-x------------|--4---4-4--x-x-x-x----------|


                                                             
e|-----------------------------|------------------------------|
B|--------------0-x-3--3-3-0-0-|-------------------6--6-6-x-0-|
G|--3---3-3---x-0-x-3--3-3-0-0-|--6---6-6----------6--6-6-x-0-|
D|--3---3-3---x-0-x-3--3-3-0-0-|--6---6-6--x-x-x-x-6--6-6-x-0-|
A|--3---3-3---x-----1--1-1-----|--6---6-6--x-x-x-x-4--4-4-x---|
E|--1---1-1---x----------------|--4---4-4--x-x-x-x------------|


                                                            
e|------------------------------|----------------------------|
B|-------------------3--3-3-0-0-|-------------------6--6--6--|
G|--3----------------3--3-3-0-0-|--6---6-6----------6--6--6--|
D|--3---3-3--x-x-x-x-3--3-3-0-0-|--6---6-6--x-x-x-x-6--6--6--|
A|--3---3-3--x-x-x-x-1--1-1-----|--6---6-6--x-x-x-x-4--4--4--|
E|--1---1-1--x-x-x-x------------|--4---4-4--x-x-x-x----------|


                                                             
e|-----------------------------|------------------------------|
B|--------------0-x-3--3-3-0-0-|-------------------6--6-6-x-0-|
G|--3---3-3---x-0-x-3--3-3-0-0-|--6---6-6----------6--6-6-x-0-|
D|--3---3-3---x-0-x-3--3-3-0-0-|--6---6-6--x-x-x-x-6--6-6-x-0-|
A|--3---3-3---x-----1--1-1-----|--6---6-6--x-x-x-x-4--4-4-x---|
E|--1---1-1---x----------------|--4---4-4--x-x-x-x------------|


                                                                                
e|------------------------------|----------------------------|-------------------|
B|-------------------3--3-3-0-0-|-------------------6--6--6--|--6----------------|
G|--3----------------3--3-3-0-0-|--6---6-6----------6--6--6--|--6----------------|
D|--3---3-3--x-x-x-x-3--3-3-0-0-|--6---6-6--x-x-x-x-6--6--6--|--6----------------|
A|--3---3-3--x-x-x-x-1--1-1-----|--6---6-6--x-x-x-x-4--4--4--|--4----------------|
E|--1---1-1--x-x-x-x------------|--4---4-4--x-x-x-x----------|-------------------|


                                                                            
e|------------------|------------------|------------------|------------------|
B|------------------|------------------|------------------|------------------|
G|------------------|------------------|------------------|------------------|
D|------------------|------------------|------------------|------------------|
A|------------------|------------------|------------------|------------------|
E|------------------|------------------|------------------|------------------|


                                                                                
e|------------------|------------------|------------------|-------1---------1----|
B|------------------|------------------|------------------|--1---------1---------|
G|------------------|------------------|------------------|----------------------|
D|------------------|------------------|------------------|----------------------|
A|------------------|------------------|------------------|----------------------|
E|------------------|------------------|------------------|----------------------|


                                                                     
e|-------1---------1----|-------1---------1----|-------1---------1----|
B|--1---------1---------|--1---------1---------|--1---------1---------|
G|----------------------|----------------------|----------------------|
D|----------------------|----------------------|----------------------|
A|----------------------|----------------------|----------------------|
E|----------------------|----------------------|----------------------|


                                                                     
e|-------1---------1----|-------1---------1----|-------1---------1----|
B|--1---------1---------|--1---------1---------|--1---------1---------|
G|----------------------|----------------------|----------------------|
D|----------------------|----------------------|----------------------|
A|----------------------|----------------------|----------------------|
E|----------------------|----------------------|----------------------|


                                                     
e|-------1---------1----|-----------------------------|
B|--1---------1---------|--------------0-x-3--3-3-0-0-|
G|----------------------|--3---3-3---x-0-x-3--3-3-0-0-|
D|----------------------|--3---3-3---x-0-x-3--3-3-0-0-|
A|----------------------|--3---3-3---x-----1--1-1-----|
E|----------------------|--1---1-1---x----------------|


                                                              
e|------------------------------|------------------------------|
B|-------------------6--6-6-x-0-|-------------------3--3-3-0-0-|
G|--6---6-6----------6--6-6-x-0-|--3----------------3--3-3-0-0-|
D|--6---6-6--x-x-x-x-6--6-6-x-0-|--3---3-3--x-x-x-x-3--3-3-0-0-|
A|--6---6-6--x-x-x-x-4--4-4-x---|--3---3-3--x-x-x-x-1--1-1-----|
E|--4---4-4--x-x-x-x------------|--1---1-1--x-x-x-x------------|


                                                           
e|----------------------------|-----------------------------|
B|-------------------6--6--6--|--------------0-x-3--3-3-0-0-|
G|--6---6-6----------6--6--6--|--3---3-3---x-0-x-3--3-3-0-0-|
D|--6---6-6--x-x-x-x-6--6--6--|--3---3-3---x-0-x-3--3-3-0-0-|
A|--6---6-6--x-x-x-x-4--4--4--|--3---3-3---x-----1--1-1-----|
E|--4---4-4--x-x-x-x----------|--1---1-1---x----------------|


                                                              
e|------------------------------|------------------------------|
B|-------------------6--6-6-x-0-|-------------------3--3-3-0-0-|
G|--6---6-6----------6--6-6-x-0-|--3----------------3--3-3-0-0-|
D|--6---6-6--x-x-x-x-6--6-6-x-0-|--3---3-3--x-x-x-x-3--3-3-0-0-|
A|--6---6-6--x-x-x-x-4--4-4-x---|--3---3-3--x-x-x-x-1--1-1-----|
E|--4---4-4--x-x-x-x------------|--1---1-1--x-x-x-x------------|


                                                           
e|----------------------------|-----------------------------|
B|-------------------6--6--6--|--------------0-x-3--3-3-0-0-|
G|--6---6-6----------6--6--6--|--3---3-3---x-0-x-3--3-3-0-0-|
D|--6---6-6--x-x-x-x-6--6--6--|--3---3-3---x-0-x-3--3-3-0-0-|
A|--6---6-6--x-x-x-x-4--4--4--|--3---3-3---x-----1--1-1-----|
E|--4---4-4--x-x-x-x----------|--1---1-1---x----------------|


                                                              
e|------------------------------|------------------------------|
B|-------------------6--6-6-x-0-|-------------------3--3-3-0-0-|
G|--6---6-6----------6--6-6-x-0-|--3----------------3--3-3-0-0-|
D|--6---6-6--x-x-x-x-6--6-6-x-0-|--3---3-3--x-x-x-x-3--3-3-0-0-|
A|--6---6-6--x-x-x-x-4--4-4-x---|--3---3-3--x-x-x-x-1--1-1-----|
E|--4---4-4--x-x-x-x------------|--1---1-1--x-x-x-x------------|


                                                           
e|----------------------------|-----------------------------|
B|-------------------6--6--6--|--------------0-x-3--3-3-0-0-|
G|--6---6-6----------6--6--6--|--3---3-3---x-0-x-3--3-3-0-0-|
D|--6---6-6--x-x-x-x-6--6--6--|--3---3-3---x-0-x-3--3-3-0-0-|
A|--6---6-6--x-x-x-x-4--4--4--|--3---3-3---x-----1--1-1-----|
E|--4---4-4--x-x-x-x----------|--1---1-1---x----------------|


                                                              
e|------------------------------|------------------------------|
B|-------------------6--6-6-x-0-|-------------------3--3-3-0-0-|
G|--6---6-6----------6--6-6-x-0-|--3----------------3--3-3-0-0-|
D|--6---6-6--x-x-x-x-6--6-6-x-0-|--3---3-3--x-x-x-x-3--3-3-0-0-|
A|--6---6-6--x-x-x-x-4--4-4-x---|--3---3-3--x-x-x-x-1--1-1-----|
E|--4---4-4--x-x-x-x------------|--1---1-1--x-x-x-x------------|


                                                           
e|----------------------------|-----------------------------|
B|-------------------6--6--6--|--------------0-x-3--3-3-0-0-|
G|--6---6-6----------6--6--6--|--3---3-3---x-0-x-3--3-3-0-0-|
D|--6---6-6--x-x-x-x-6--6--6--|--3---3-3---x-0-x-3--3-3-0-0-|
A|--6---6-6--x-x-x-x-4--4--4--|--3---3-3---x-----1--1-1-----|
E|--4---4-4--x-x-x-x----------|--1---1-1---x----------------|


                                                              
e|------------------------------|------------------------------|
B|-------------------6--6-6-x-0-|-------------------3--3-3-0-0-|
G|--6---6-6----------6--6-6-x-0-|--3----------------3--3-3-0-0-|
D|--6---6-6--x-x-x-x-6--6-6-x-0-|--3---3-3--x-x-x-x-3--3-3-0-0-|
A|--6---6-6--x-x-x-x-4--4-4-x---|--3---3-3--x-x-x-x-1--1-1-----|
E|--4---4-4--x-x-x-x------------|--1---1-1--x-x-x-x------------|


                                                                    
e|----------------------------|-------------------|------------------|
B|-------------------6--6--6--|-------------------|------------------|
G|--6---6-6----------6--6--6--|-------------------|------------------|
D|--6---6-6--x-x-x-x-6--6--6--|--3----------------|------------------|
A|--6---6-6--x-x-x-x-4--4--4--|--3----------------|------------------|
E|--4---4-4--x-x-x-x----------|--1----------------|------------------|


                    
e|------------------||
B|------------------||
G|------------------||
D|------------------||
A|------------------||
E|------------------||



************************************

| x  Dead note
| \  Slide down
| b  Bend
| /  Slide up

************************************
Suggest correction
comments
print report bad tab
9 comments total. Showing first comments.
0 reply
ALFRED123456789 30 Oct 01, 2005 05:26 PM

WHERE ARE IS THE SOLO MAN

0 reply
danrocks 10 Oct 25, 2005 05:21 AM

it is too high in pitch with 3 fingures on the third fret

0 reply
danrocks 10 Oct 25, 2005 05:21 AM

and you forgot the solo

guest
You may want to rate the tab now too:
select rating
Wanna post a correction for this tab? Suggest correction