Oops, an error
Loading. Please wait.

Smells Like Teen Spirit Tab

4,601,125 views 5,973 this week
562 commentsread comments
1 2 3 4 5
excellent!
x 1,792
add to favorites
launch autoscroll
font size
0
reset
how to read this tab
guitar tuner
Tab Pro tools
  • play this tab
  • loop segment
  • change instrument
  • show fretboard
  • metronome
×
Best way to learn
"Smells Like Teen Spirit"
Autoscroll
slow
fast
+/-
esc
set tempo
stop
[INTRO]

(Clean guitar)
e|--------------------|----------------------|--------------------|----------------------|
B|--------------------|----------------------|--------------------|----------------------|
G|----------------3-3-|-0----------------6-6-|----------------3-3-|-0----------------6-6-|
D|-3--3-3-x-x-x-x-3-3-|-0-6--6-6-x-x-x-x-6-6-|-3--3-3-x-x-x-x-3-3-|-0-6--6-6-x-x-x-x-6-6-|
A|-3--3-3-x-x-x-x-1-1-|-0-6--6-6-x-x-x-x-4-4-|-3--3-3-x-x-x-x-1-1-|-0-6--6-6-x-x-x-x-4-4-|
E|-1--1-1-x-x-x-x-----|---4--4-4-x-x-x-x-----|-1--1-1-x-x-x-x-----|---4--4-4-x-x-x-x-----|

(with distortion)
e|--------------------|----------------------|--------------------|----------------------|
B|--------------------|----------------------|--------------------|----------------------|
G|----------------3-3-|-0----------------6-6-|----------------3-3-|-0----------------6-6-|
D|-3--3-3-x-x-x-x-3-3-|-0-6--6-6-x-x-x-x-6-6-|-3--3-3-x-x-x-x-3-3-|-0-6--6-6-x-x-x-x-6-6-|
A|-3--3-3-x-x-x-x-1-1-|-0-6--6-6-x-x-x-x-4-4-|-3--3-3-x-x-x-x-1-1-|-0-6--6-6-x-x-x-x-4-4-|
E|-1--1-1-x-x-x-x-----|---4--4-4-x-x-x-x-----|-1--1-1-x-x-x-x-----|---4--4-4-x-x-x-x-----|

e|--------------------|----------------------|--------------------|----------------------|
B|--------------------|----------------------|--------------------|----------------------|
G|----------------3-3-|-0----------------6-6-|----------------3-3-|-0----------------6-6-|
D|-3--3-3-x-x-x-x-3-3-|-0-6--6-6-x-x-x-x-6-6-|-3--3-3-x-x-x-x-3-3-|-0-6--6-6-x-x-x-x-6-6-|
A|-3--3-3-x-x-x-x-1-1-|-0-6--6-6-x-x-x-x-4-4-|-3--3-3-x-x-x-x-1-1-|-0-6--6-6-x-x-x-x-4-4-|
E|-1--1-1-x-x-x-x-----|---4--4-4-x-x-x-x-----|-1--1-1-x-x-x-x-----|---4--4-4-x-x-x-x-----|


[VERSE]

(Bass)
G|-----------------|-----------------|-----------------|-----------------|
D|-----------------|-----------------|-----------------|-----------------|
A|---------1-1-1-1-|---------4-4-4-4-|---------1-1-1-1-|---------4-4-4-4-|
E|-1-1-1-1---------|-4-4-4-4---------|-1-1-1-1---------|-4-4-4-4---------|

(Guitar)
e|----------1------|-----------------|----------1------|-----------------|
B|--------1--------|-----------------|--------1--------|-----------------|
G|-----------------|-----------------|-----------------|-----------------|
D|-----------------|-----------------|-----------------|-----------------|
A|-----------------|-----------------|-----------------|-----------------|
E|-----------------|-----------------|-----------------|-----------------|

(Bass)
G|-----------------|-----------------|-----------------|-----------------| 
D|-----------------|-----------------|-----------------|-----------------|
A|---------1-1-1-1-|---------4-4-4-4-|---------1-1-1-1-|---------4-4-4-4-|
E|-1-1-1-1---------|-4-4-4-4---------|-1-1-1-1---------|-4-4-4-4---------|

(Guitar)
e|----------1------|-----------------|----------1------|-----------------|
B|--------1--------|-----------------|--------1--------|-----------------|
G|-----------------|-----------------|-----------------|-----------------|
D|-----------------|-----------------|-----------------|-----------------|
A|-----------------|-----------------|-----------------|-----------------|
E|-----------------|-----------------|-----------------|-----------------|

           Load up on guns, and bring your friends its fun to lose

(Bass)
G|-----------------|-----------------|-----------------|-----------------|
D|-----------------|-----------------|-----------------|-----------------|
A|---------1-1-1-1-|---------4-4-4-4-|---------1-1-1-1-|---------4-4-4-4-|
E|-1-1-1-1---------|-4-4-4-4---------|-1-1-1-1---------|-4-4-4-4---------|

(Guitar)
e|----------1------|-----------------|----------1------|-----------------|
B|--------1--------|-----------------|--------1--------|-----------------|
G|-----------------|-----------------|-----------------|-----------------|
D|-----------------|-----------------|-----------------|-----------------|
A|-----------------|-----------------|-----------------|-----------------|
E|-----------------|-----------------|-----------------|-----------------|

   and to pretend, She's over bored and self-assured, I know I know a dirty word


[PRE-CHORUS]

(Bass)
G|-----------------|-----------------|-----------------|-----------------|
D|-----------------|-----------------|-----------------|-----------------|
A|---------1-1-1-1-|---------4-4-4-4-|---------1-1-1-1-|---------4-4-4-4-|
E|-1-1-1-1---------|-4-4-4-4---------|-1-1-1-1---------|-4-4-4-4---------|

(Guitar)
e|---6---6---6---6-|---6---6---6---6-|---6---6---6---6-|---6---6---6---6-|
B|-5---5---5---5---|-5---5---5---5---|-5---5---5---5---|-5---5---5---5---|
G|-----------------|-----------------|-----------------|-----------------|
D|-----------------|-----------------|-----------------|-----------------|
A|-----------------|-----------------|-----------------|-----------------|
E|-----------------|-----------------|-----------------|-----------------|

 Hello hello hello | Hello hello hello| Hello, hello, hello| Hello, hello, hello
           how low             how low              how low             


[CHORUS]

(Guitar)
e|--------------------|----------------------|--------------------|----------------------|
B|--------------------|----------------------|--------------------|----------------------|
G|----------------3-3-|-0----------------6-6-|----------------3-3-|-0----------------6-6-|
D|-3--3-3-x-x-x-x-3-3-|-0-6--6-6-x-x-x-x-6-6-|-3--3-3-x-x-x-x-3-3-|-0-6--6-6-x-x-x-x-6-6-|
A|-3--3-3-x-x-x-x-1-1-|-0-6--6-6-x-x-x-x-4-4-|-3--3-3-x-x-x-x-1-1-|-0-6--6-6-x-x-x-x-4-4-|
E|-1--1-1-x-x-x-x-----|---4--4-4-x-x-x-x-----|-1--1-1-x-x-x-x-----|---4--4-4-x-x-x-x-----|

  With the lights out, its less dangerous here we are now, entertain us

e|--------------------|----------------------|--------------------|----------------------|
B|--------------------|----------------------|--------------------|----------------------|
G|----------------3-3-|-0----------------6-6-|----------------3-3-|-0----------------6-6-|
D|-3--3-3-x-x-x-x-3-3-|-0-6--6-6-x-x-x-x-6-6-|-3--3-3-x-x-x-x-3-3-|-0-6--6-6-x-x-x-x-6-6-|
A|-3--3-3-x-x-x-x-1-1-|-0-6--6-6-x-x-x-x-4-4-|-3--3-3-x-x-x-x-1-1-|-0-6--6-6-x-x-x-x-4-4-|
E|-1--1-1-x-x-x-x-----|---4--4-4-x-x-x-x-----|-1--1-1-x-x-x-x-----|---4--4-4-x-x-x-x-----|

   I feel stupid, and contagious,      here we are now, entertain us

e|--------------------|----------------------|--------------------|----------------------|
B|--------------------|----------------------|--------------------|----------------------|
G|----------------3-3-|-0----------------6-6-|----------------3-3-|-0----------------6-6-|
D|-3--3-3-x-x-x-x-3-3-|-0-6--6-6-x-x-x-x-6-6-|-3--3-3-x-x-x-x-3-3-|-0-6--6-6-x-x-x-x-6-6-|
A|-3--3-3-x-x-x-x-1-1-|-0-6--6-6-x-x-x-x-4-4-|-3--3-3-x-x-x-x-1-1-|-0-6--6-6-x-x-x-x-4-4-|
E|-1--1-1-x-x-x-x-----|---4--4-4-x-x-x-x-----|-1--1-1-x-x-x-x-----|---4--4-4-x-x-x-x-----|

  A mulatto,            An albino       A mosquito        My libido, yeah

e|--------------------|----------------------|--------------------|----------------------|
B|--------------------|----------------------|--------------------|----------------------|
G|----------------3-3-|-0----------------6-6-|----------------3-3-|-0----------------6-6-|
D|-3--3-3-x-x-x-x-3-3-|-0-6--6-6-x-x-x-x-6-6-|-3--3-3-x-x-x-x-3-3-|-0-6--6-6-x-x-x-x-6-6-|
A|-3--3-3-x-x-x-x-1-1-|-0-6--6-6-x-x-x-x-4-4-|-3--3-3-x-x-x-x-1-1-|-0-6--6-6-x-x-x-x-4-4-|
E|-1--1-1-x-x-x-x-----|---4--4-4-x-x-x-x-----|-1--1-1-x-x-x-x-----|---4--4-4-x-x-x-x-----|

              hey!                              hey!

(Bass)
G|-----------------|-----------------|-----------------|-----------------|
D|-----------------|-----------------|-----------------|-----------------|
A|---------1-1-1-1-|---------4-4-4-4-|---------1-1-1-1-|---------4-4-4-4-|
E|-1-1-1-1---------|-4-4-4-4---------|-1-1-1-1---------|-4-4-4-4---------|

(Guitar)
e|----------1------|-----------------|----------1------|-----------------|
B|--------1--------|-----------------|--------1--------|-----------------|
G|-----------------|-----------------|-----------------|-----------------|
D|-----------------|-----------------|-----------------|-----------------|
A|-----------------|-----------------|-----------------|-----------------|
E|-----------------|-----------------|-----------------|-----------------|


[VERSE]

(Bass)
G|-----------------|-----------------|-----------------|-----------------|
D|-----------------|-----------------|-----------------|-----------------|
A|---------1-1-1-1-|---------4-4-4-4-|---------1-1-1-1-|---------4-4-4-4-|
E|-1-1-1-1---------|-4-4-4-4---------|-1-1-1-1---------|-4-4-4-4---------|

(Guitar)
e|----------1------|-----------------|----------1------|-----------------|
B|--------1--------|-----------------|--------1--------|-----------------|
G|-----------------|-----------------|-----------------|-----------------|
D|-----------------|-----------------|-----------------|-----------------|
A|-----------------|-----------------|-----------------|-----------------|
E|-----------------|-----------------|-----------------|-----------------|

   I'm worse at what what I do best, and for this gift I feel blessed

(Bass)
G|-----------------|-----------------|-----------------|-----------------|
D|-----------------|-----------------|-----------------|-----------------|
A|---------1-1-1-1-|---------4-4-4-4-|---------1-1-1-1-|---------4-4-4-4-|
E|-1-1-1-1---------|-4-4-4-4---------|-1-1-1-1---------|-4-4-4-4---------|

(Guitar)
e|----------1------|-----------------|----------1------|-----------------|
B|--------1--------|-----------------|--------1--------|-----------------|
G|-----------------|-----------------|-----------------|-----------------|
D|-----------------|-----------------|-----------------|-----------------|
A|-----------------|-----------------|-----------------|-----------------|
E|-----------------|-----------------|-----------------|-----------------|

    our little group, has always been, and always will until the end


[PRE-CHORUS]

(Bass)
G|-----------------|-----------------|-----------------|-----------------|
D|-----------------|-----------------|-----------------|-----------------|
A|---------1-1-1-1-|---------4-4-4-4-|---------1-1-1-1-|---------4-4-4-4-|
E|-1-1-1-1---------|-4-4-4-4---------|-1-1-1-1---------|-4-4-4-4---------|

(Guitar)
e|---6---6---6---6-|---6---6---6---6-|---6---6---6---6-|---6---6---6---6-|
B|-5---5---5---5---|-5---5---5---5---|-5---5---5---5---|-5---5---5---5---|
G|-----------------|-----------------|-----------------|-----------------|
D|-----------------|-----------------|-----------------|-----------------|
A|-----------------|-----------------|-----------------|-----------------|
E|-----------------|-----------------|-----------------|-----------------|

 Hello hello hello | Hello hello hello| Hello, hello, hello| Hello, hello, hello
           how low             how low              how low             


[CHORUS]

(Guitar)
e|--------------------|----------------------|--------------------|----------------------|
B|--------------------|----------------------|--------------------|----------------------|
G|----------------3-3-|-0----------------6-6-|----------------3-3-|-0----------------6-6-|
D|-3--3-3-x-x-x-x-3-3-|-0-6--6-6-x-x-x-x-6-6-|-3--3-3-x-x-x-x-3-3-|-0-6--6-6-x-x-x-x-6-6-|
A|-3--3-3-x-x-x-x-1-1-|-0-6--6-6-x-x-x-x-4-4-|-3--3-3-x-x-x-x-1-1-|-0-6--6-6-x-x-x-x-4-4-|
E|-1--1-1-x-x-x-x-----|---4--4-4-x-x-x-x-----|-1--1-1-x-x-x-x-----|---4--4-4-x-x-x-x-----|

  With the lights out, its less dangerous here we are now, entertain us

e|--------------------|----------------------|--------------------|----------------------|
B|--------------------|----------------------|--------------------|----------------------|
G|----------------3-3-|-0----------------6-6-|----------------3-3-|-0----------------6-6-|
D|-3--3-3-x-x-x-x-3-3-|-0-6--6-6-x-x-x-x-6-6-|-3--3-3-x-x-x-x-3-3-|-0-6--6-6-x-x-x-x-6-6-|
A|-3--3-3-x-x-x-x-1-1-|-0-6--6-6-x-x-x-x-4-4-|-3--3-3-x-x-x-x-1-1-|-0-6--6-6-x-x-x-x-4-4-|
E|-1--1-1-x-x-x-x-----|---4--4-4-x-x-x-x-----|-1--1-1-x-x-x-x-----|---4--4-4-x-x-x-x-----|

  I feel stupid, and contagious,      here we are now, entertain us

e|--------------------|----------------------|--------------------|----------------------|
B|--------------------|----------------------|--------------------|----------------------|
G|----------------3-3-|-0----------------6-6-|----------------3-3-|-0----------------6-6-|
D|-3--3-3-x-x-x-x-3-3-|-0-6--6-6-x-x-x-x-6-6-|-3--3-3-x-x-x-x-3-3-|-0-6--6-6-x-x-x-x-6-6-|
A|-3--3-3-x-x-x-x-1-1-|-0-6--6-6-x-x-x-x-4-4-|-3--3-3-x-x-x-x-1-1-|-0-6--6-6-x-x-x-x-4-4-|
E|-1--1-1-x-x-x-x-----|---4--4-4-x-x-x-x-----|-1--1-1-x-x-x-x-----|---4--4-4-x-x-x-x-----|
  A mulatto,            An albino       A mosquito        My libido, yeah

e|--------------------|----------------------|--------------------|----------------------|
B|--------------------|----------------------|--------------------|----------------------|
G|----------------3-3-|-0----------------6-6-|----------------3-3-|-0----------------6-6-|
D|-3--3-3-x-x-x-x-3-3-|-0-6--6-6-x-x-x-x-6-6-|-3--3-3-x-x-x-x-3-3-|-0-6--6-6-x-x-x-x-6-6-|
A|-3--3-3-x-x-x-x-1-1-|-0-6--6-6-x-x-x-x-4-4-|-3--3-3-x-x-x-x-1-1-|-0-6--6-6-x-x-x-x-4-4-|
E|-1--1-1-x-x-x-x-----|---4--4-4-x-x-x-x-----|-1--1-1-x-x-x-x-----|---4--4-4-x-x-x-x-----|

              hey!                              hey!


[SOLO]
(guitar Two plays chorus riff 6 times)

e|--------------|---------------|-------------|-------------|
B|--------------|---------------|-------------|-------------|
G|-----8h10-----|-8-8b----6--5--|-6--5--------|-------------|
D|-10--------6--|---------------|-------8-6-8-|-8b----6--5--|
A|--------------|---------------|-------------|-------------|
E|--------------|---------------|-------------|-------------|

e|--------------|---------------|-------------|-------------|
B|--------------|---------------|-------------|-------------|
G|-----8h10-----|-8-8b----6--5--|-6--5--------|-------------|
D|-10--------6--|---------------|-------8-6-8-|-8b----6--5--|
A|--------------|---------------|-------------|-------------|
E|--------------|---------------|-------------|-------------|

e|-------------|--------------|-------------|--------------|
B|-------------|--------------|-------------|--------------|
G|-------------|--------------|-------------|--------------|
D|-6--5--6--5--|-6--5--6/5----|-6--5--6--5--|-6--5--6/5----|
A|-------------|-----------8--|-------------|-----------8~~|
E|-------------|--------------|-------------|--------------|


[VERSE]

(Bass)
G|-----------------|-----------------|-----------------|-----------------|
D|-----------------|-----------------|-----------------|-----------------|
A|---------1-1-1-1-|---------4-4-4-4-|---------1-1-1-1-|---------4-4-4-4-|
E|-1-1-1-1---------|-4-4-4-4---------|-1-1-1-1---------|-4-4-4-4---------|

G|-----------------|-----------------|-----------------|-----------------|
D|-----------------|-----------------|-----------------|-----------------|
A|---------1-1-1-1-|---------4-4-4-4-|---------1-1-1-1-|---------4-4-4-4-|
E|-1-1-1-1---------|-4-4-4-4---------|-1-1-1-1---------|-4-4-4-4---------|

  And I forget just what it takes and yet I guess it makes me smile

G|-----------------|-----------------|-----------------|-----------------|
D|-----------------|-----------------|-----------------|-----------------|
A|---------1-1-1-1-|---------4-4-4-4-|---------1-1-1-1-|---------4-4-4-4-|
E|-1-1-1-1---------|-4-4-4-4---------|-1-1-1-1---------|-4-4-4-4---------|

  I've found it hard, its hard to find, oh well whatever never mind


[PRE-CHORUS]

(Bass)
G|-----------------|-----------------|-----------------|-----------------|
D|-----------------|-----------------|-----------------|-----------------|
A|---------1-1-1-1-|---------4-4-4-4-|---------1-1-1-1-|---------4-4-4-4-|
E|-1-1-1-1---------|-4-4-4-4---------|-1-1-1-1---------|-4-4-4-4---------|

(Guitar)
e|---6---6---6---6-|---6---6---6---6-|---6---6---6---6-|---6---6---6---6-|
B|-5---5---5---5---|-5---5---5---5---|-5---5---5---5---|-5---5---5---5---|
G|-----------------|-----------------|-----------------|-----------------|
D|-----------------|-----------------|-----------------|-----------------|
A|-----------------|-----------------|-----------------|-----------------|
E|-----------------|-----------------|-----------------|-----------------|

 Hello hello hello | Hello hello hello| Hello, hello, hello| Hello, hello, hello
           how low             how low              how low             

(Guitar)
e|--------------------|----------------------|--------------------|----------------------|
B|--------------------|----------------------|--------------------|----------------------|
G|----------------3-3-|-0----------------6-6-|----------------3-3-|-0----------------6-6-|
D|-3--3-3-x-x-x-x-3-3-|-0-6--6-6-x-x-x-x-6-6-|-3--3-3-x-x-x-x-3-3-|-0-6--6-6-x-x-x-x-6-6-|
A|-3--3-3-x-x-x-x-1-1-|-0-6--6-6-x-x-x-x-4-4-|-3--3-3-x-x-x-x-1-1-|-0-6--6-6-x-x-x-x-4-4-|
E|-1--1-1-x-x-x-x-----|---4--4-4-x-x-x-x-----|-1--1-1-x-x-x-x-----|---4--4-4-x-x-x-x-----|

  With the lights out, its less dangerous here we are now, entertain us

e|--------------------|----------------------|--------------------|----------------------|
B|--------------------|----------------------|--------------------|----------------------|
G|----------------3-3-|-0----------------6-6-|----------------3-3-|-0----------------6-6-|
D|-3--3-3-x-x-x-x-3-3-|-0-6--6-6-x-x-x-x-6-6-|-3--3-3-x-x-x-x-3-3-|-0-6--6-6-x-x-x-x-6-6-|
A|-3--3-3-x-x-x-x-1-1-|-0-6--6-6-x-x-x-x-4-4-|-3--3-3-x-x-x-x-1-1-|-0-6--6-6-x-x-x-x-4-4-|
E|-1--1-1-x-x-x-x-----|---4--4-4-x-x-x-x-----|-1--1-1-x-x-x-x-----|---4--4-4-x-x-x-x-----|

   I feel stupid, and contagious,      here we are now, entertain us

e|--------------------|----------------------|--------------------|----------------------|
B|--------------------|----------------------|--------------------|----------------------|
G|----------------3-3-|-0----------------6-6-|----------------3-3-|-0----------------6-6-|
D|-3--3-3-x-x-x-x-3-3-|-0-6--6-6-x-x-x-x-6-6-|-3--3-3-x-x-x-x-3-3-|-0-6--6-6-x-x-x-x-6-6-|
A|-3--3-3-x-x-x-x-1-1-|-0-6--6-6-x-x-x-x-4-4-|-3--3-3-x-x-x-x-1-1-|-0-6--6-6-x-x-x-x-4-4-|
E|-1--1-1-x-x-x-x-----|---4--4-4-x-x-x-x-----|-1--1-1-x-x-x-x-----|---4--4-4-x-x-x-x-----|

  A mulatto,            An albino       A mosquito        My libido, 

e|--------------------|----------------------|--------------------|----------------------|
B|--------------------|----------------------|--------------------|----------------------|
G|----------------3-3-|-0----------------6-6-|----------------3-3-|-0----------------6-6-|
D|-3--3-3-x-x-x-x-3-3-|-0-6--6-6-x-x-x-x-6-6-|-3--3-3-x-x-x-x-3-3-|-0-6--6-6-x-x-x-x-6-6-|
A|-3--3-3-x-x-x-x-1-1-|-0-6--6-6-x-x-x-x-4-4-|-3--3-3-x-x-x-x-1-1-|-0-6--6-6-x-x-x-x-4-4-|
E|-1--1-1-x-x-x-x-----|---4--4-4-x-x-x-x-----|-1--1-1-x-x-x-x-----|---4--4-4-x-x-x-x-----|
  
  A denial           A denial           A denial         A denial

e|--------------------|----------------------|--------------------|----------------------|
B|--------------------|----------------------|--------------------|----------------------|
G|----------------3-3-|-0----------------6-6-|----------------3-3-|-0----------------6-6-|
D|-3--3-3-x-x-x-x-3-3-|-0-6--6-6-x-x-x-x-6-6-|-3--3-3-x-x-x-x-3-3-|-0-6--6-6-x-x-x-x-6-6-|
A|-3--3-3-x-x-x-x-1-1-|-0-6--6-6-x-x-x-x-4-4-|-3--3-3-x-x-x-x-1-1-|-0-6--6-6-x-x-x-x-4-4-|
E|-1--1-1-x-x-x-x-----|---4--4-4-x-x-x-x-----|-1--1-1-x-x-x-x-----|---4--4-4-x-x-x-x-----|
  
  A denial           A denial           A denial         A denial

e|--------------|--------------|
B|--------------|--------------|
G|--------------|--------------|
D|-3------------|--------------|
A|-3------------|--------------|
E|-1------------|--------------|
 
 A denial


***********************************
| /   Slide up
| h   Hummer-on
| ~   Vibrato
| x   Dead note
| b   Bend
***********************************
comments
print report bad tab
562 comments total. Showing first comments. show 1 bad comment
+37 reply
SaschaDozz wrote on August 16 2005, 12:00 am

Good tab, I love the solo but its not correct.

+29 reply
guitarmaniac17 wrote on September 28 2005, 06:14 pm

nice job.

I want to post or [tab]
guest
You may want to rate the tab now too:
select rating
Please do not post tabs as comments. Select "correction" instead!