Oops, an error
Loading. Please wait.
We have an official Something In The Way tab made by UG professional guitarists. Check out the tab »
×

Something In The Way tab

by Nirvana
46 views 3 this week
no commentswrite comment
1 2 3 4 5
3 more votes to show rating
add to favorites
×
Save as Personal and add changes to this tab that will be seen only by you. Learn more ›
×
You can save this tab as Personal to edit and correct it or add notes. All changes will be seen only by you. Learn more »
launch autoscroll
font size
0
reset
how to read this tab
guitar tuner
backing track
0:00
0:00
edit
Autoscroll
slow
fast
+/-
esc
set tempo
stop
About this tab version
I looked at many tabs of this song and I couldn't understand how the tab corresponded with the song. So I came up with what I think is the correct or an accurate way of playing this song. I made it to where a beginner can play it but to where it still sounds really good. I was a beginner once, and I remember how tabs frustrated me because many authors put mumbo-jumbo in there. Was this info helpful? Yes No
I've noticed that alot of tabs that people make are incorrect on this song. For 2 reasons, 1 being that on the
unplugged video collection, Kurt tunes his guitar UP, not DOWN, after 'On a Plane'. And 2 being when you 
simply listen to the song, the chords are not what many people say. Let alone the chorus, the song is TWO 
chords and only 2! So I spent little-to-no-time and figured out what I think is the correct way, or atleast
a very accurate way. Here you guys go. 

[Intro]
e|---------------------------------------------------------------------------|
B|---------------------------------------------------------------------------|
G|---------------------------------------------------------------------------|
D|---3-----------------------------------------------------------------------|
A|-3--3--4-4-----------------------------------------------------------------|
E|-1-----4--4----------------------------------------------------------------| (x4)

[Verse]
(you can play this simple rif until chorus pretty much)
e|---------------------------------------------------------------------------|
B|---------------------------------------------------------------------------|
G|---------------------------------------------------------------------------|
D|---------------------------------------------------------------------------|
A|-3-33-4-44-----------------------------------------------------------------|
E|-1-11-4-44-----------------------------------------------------------------|

[Chorus]
(recommend to up-and-down stroke for that extra sound)
(but it's up to you. play along with the song if you)
(need to, it can help you comprehend the tab better.)
e|---------------------------------------------------------------------------|
B|---------------------------------------------------------------------------|
G|---------------------------------------------------------------------------|
D|---------------------------------------------------------------------------|
A|-3-33-33-4-44-44-----------------------------------------------------------|
E|-1-11-11-4-44-44-----------------------------------------------------------|

            
            
Suggest correction
Creating personal tab
Creating personal tab
You can edit any tab online and save it as your Personal.

You can edit, replace or remove any tab part or add personal notes – all changes will be seen only by you.

Personal tabs can be accessed anytime from any device, even offline.
Learn more »
Give kudos to tab author, rate the tab!
1 2 3 4 5
comments
print report bad tab
guest
You may want to rate the tab now too:
select rating
Wanna post a correction for this tab? Suggest correction