Oops, an error
Loading. Please wait.

Spank Thru tab

version 1
version 1

Whole song

Interactive

by Nirvana
38,129 views 60 this week
7 commentsread comments
1 2 3 4 5
x 17
add to favorites
×
Save as Personal and add changes to this tab that will be seen only by you. Learn more ›
×
You can save this tab as Personal to edit and correct it or add notes. All changes will be seen only by you. Learn more »
launch autoscroll
font size
0
reset
how to read this tab
guitar tuner
edit
Autoscroll
slow
fast
+/-
esc
set tempo
stop
Author
Unregistered
SPANK THRU
kurtdvidk@msn.com
Tuning:Standard

[Intro]

  A5         G5       D5      A5             G5
e|------------------------------|-----0----------------------|
B|----------------------3-3-3---|------------------0---0-----|
G|2----2--2-2-0---0-0-0-2-2-2-0-|2--2-2--2-2-------0---0-----|
D|2--2-2--2-2-0---0-0-0-0-0-0-0-|2--2-2--2-2-0-0---0---0-----|
A|0--0-0--0-0-0-------0-------0-|0--0-0--0-0-0---------------|
E|------------0-3-3-3-0-------0-|------------0-3---3---3-2-0-|
let ring

[Verse Riff]

  A5         G5       D5      A5             G5
e|------------------------------|----------------------------|
B|----------------------3-3-3---|------------------0---------|
G|2----2--2-2-0-----0---2-2-2-0-|2--2-2--2-2-------0---------|
D|2--2-2--2-2-0---0-0-0-0-0-0-0-|2--2-2--2-2---0---0---0-----|
A|0--0------0-0-------0-------0-|0--0----0-0-0---------------|
E|--------------3-3-3-0---------|------------0-3---3---3-2-0-|
PM__          PM_              PM__          PM

[Chorus]

  D             A               F5              G5
e|2--2--2--2-2---|---------------|---------------|----------------|
B|3--3--3--3-3---|-2--2--2-2-2---|---------------|----------------|
G|2--2--2--2-2---|-2--2--2-2-2-0-|------3--3-----|------5-----5-0-|
D|0--0--0--0-0-0-|-2--2--2-2-2-0-|------3--3---3-|------5-----5-0-|
A|-------------0-|-0--0--0-0-0-0-|-3----3--3-3-3-|-5--5-5---5-5-0-|
E|---------------|-------------0-|-1--1-1--1-1-1-|-3--3-3---3-3-0-|

  D             A               F5              G5
e|2--2--2--2-2---|---------------|---------------|-----------------|-----0-0-0-0-----|
B|3--3--3--3-3---|-2--2--2-2-2---|---------------|-----------------|-----0-0-0-0-----|
G|2--2--2--2-2---|-2--2--2-2-2-0-|---------------|-----------------|---------------0-|
D|0--0--0--0-0-0-|-2--2--2-2-2-0-|-3-------------|---------5-5-5-5-|-5-5-5-5-5-5-5-0-|
A|-------------0-|-0--0--0-0-0-0-|-3-------------|-5-5-5-5-5-5-5-5-|-5-5-5-5-5-5-5-0-|
E|---------------|-------------0-|-1-------------|-3-3-3-3-3-3-3-3-|-3-3-3-3-3-3-3-0-|
                                                PM_______________

[Heavy Verse Riff]

  E5    G5
e|-----------------|
B|-----------------|
G|-----------5-----|
D|---0-------5---0-|
A|2--0--5----5---0-|
E|0-----3------3---|

[Heavy Chorus]

  B5    A#5A5D5        A5     A#5B5      A#5A5D5           A5  A#5
e|---------------|----------------|---------------|----------------|
B|-------------3-|--3-3-3---------|-------------3-|--3-3-----------|
G|4--4-4-4-3-2-2-|--2-2-2-2-2-2-3-|4--4-4-4-3-2-2-|--2-2-----2-2-3-|
D|4--4-4-4-3-2-0-|--0-0-0-2-2-2-3-|4--4-4-4-3-2-0-|--0-0-----2-2-3-|
A|2--2-2-2-1-0---|--------0-0-0-1-|2--2-2-2-1-0---|----------0-0-1-|
E|---------------|----------------|---------------|----------------|

  B5    A#5A5D5        A5     A#5B5             G5      F5
e|---------------|----------------|--------------|-----------------|
B|-------------3-|--3-3-3---------|--------------|-----------------|
G|4--4-4-4-3-2-2-|--2-2-2-2-2-2-3-|4--4-4--4-4-4-|-----------------|
D|4--4-4-4-3-2-0-|--0-0-0-2-2-2-3-|4--4-4--4-4-4-|-----5-0-----3-0-|
A|2--2-2-2-1-0---|--------0-0-0-1-|2--2-2--2-2-2-|-5-5-----3-3---0-|
E|---------------|----------------|--------------|-3-3-----1-1-----|
                                                PM__     PM_

  AFTER 2ND HEAVY CHORUS
e|----|---|---|---|
B|----|---|---|---|
G|----|---|---|---|
D|2---|---|---|---|
A|2---|---|---|---|
E|0---|---|---|-/-|



************************************

| PM  Palm mute
| /   Slide up

************************************

            
            
Suggest correction
Creating personal tab
Creating personal tab
You can edit any tab online and save it as your Personal.

You can edit, replace or remove any tab part or add personal notes – all changes will be seen only by you.

Personal tabs can be accessed anytime from any device, even offline.
Learn more »
comments
print report bad tab
7 comments total. Showing first comments.
-2 reply
kurt-dave_krist 1,194 Oct 14, 2005 11:52 PM

it suck man

+1 reply
guerl 10 May 13, 2006 06:07 AM

i like this tab!!!

0 reply
lounge act 99 Jan 29, 2007 09:35 AM

not to good

guest
Wanna post a correction for this tab? Suggest correction