Oops, an error
Loading. Please wait.

Swap Meet tab

version 3
version 3

Whole song

Interactive

by Nirvana
4,187 views 12 this week
no commentswrite comment
1 2 3 4 5
2 more votes to show rating
add to favorites
×
Save as Personal and add changes to this tab that will be seen only by you. Learn more ›
×
You can save this tab as Personal to edit and correct it or add notes. All changes will be seen only by you. Learn more »
launch autoscroll
font size
0
reset
how to read this tab
guitar tuner
edit
Autoscroll
slow
fast
+/-
esc
set tempo
stop
Intro:

e|------|
B|-0h5~-|
G|------|
D|------|
A|------|
D|------|
(Kinda warped...probably from the reel beginning to roll during recording...
 You can use a whammy bar to get a similar effect.)


Verse/Main Riff:

e|---|----------------------------------------|
B|---|----------------------------------------|
G|---|----------------------------------------|
D|-0-|----3-------2-----------3-------2-------|
A|-0-|-/4-3--0-/3-2--------/4-3--0-/3-2-------|
D|-0-|-/4----0-/3---3p2p0--/4----0-/3---3p2p0-|


Chorus:
                                                              
e|----------------------------|---------------------------------|
B|----------------------------|---------------------------------|
G|------------3--3-3-3-3------|---------------------------------|
D|-5--5-5-5---3--3-3-3-3------|---------------------------------|
A|-5--5-5-5-X-1--1-1-1-1------|-----------------3---------------|
D|-5--5-5-5-X------------3/9\-|-0---3-2-1-0-1-3---0-3-2-1-0-1-0-|

e|----------------------------|---------------------------------|
B|----------------------------|---------------------------------|
G|------------3--3-3-3-3------|---------------------------------|
D|-5--5-5-5---3--3-3-3-3------|---------------------------------|
A|-5--5-5-5-X-1--1-1-1-1------|-----------------3---------------|
D|-5--5-5-5-X------------3/9\-|-0---3-2-1-0-1-3---0-3-2-1-0-1-0-|

e|--------------------------|------|------|-----------------|
B|--------------------------|------|------|-----------------|
G|------------3--3-3-3-3--3-|------|------|-----------------|
D|-5--5-5-5---3--3-3-3-3--3-|-3-3--|-2-2--|-1-1-1-1--1------|
A|-5--5-5-5-X-1--1-1-1-1--1-|-3-3--|-2-2--|-1-1-1-1--1-3/p0-|
D|-5--5-5-5-X---------------|-3-3--|-2-2--|-1-1-1-1--1-3/p0-|


Solo:
                                            
e|--------------------------------------------|--------------------------------------------|
B|-1-0-1-0-1-0-1-0--7p5p0--------7p5p0--------|-1-0-1-0-1-0-1-0--7p5p0--------7p5p0--------|
G|-1-0-1-0-1-0-1-0--------10p8p0-------10p8p0-|-1-0-1-0-1-0-1-0--------10p8p0-------10p8p0-|
D|--------------------------------------------|--------------------------------------------|
A|--------------------------------------------|--------------------------------------------|
D|--------------------------------------------|--------------------------------------------|

e|--------------------------------------------|--------------------------------------------|
B|-1-0-1-0-1-0-1-0--7p5p0--------7p5p0--------|-1-0-1-0-1-0-1-0--7p5p0--------/------------|
G|-1-0-1-0-1-0-1-0--------10p8p0-------10p8p0-|-1-0-1-0-1-0-1-0--------10p8p0-/------------|
D|--------------------------------------------|-------------------------------/0-----------|
A|--------------------------------------------|--------------------------------0-----------|
D|--------------------------------------------|--------------------------------------/12-0-|
                                                                         ^(Just kinda cut it off
                                                                          here by sliding around
                                                                          and being noisy...)

End:

e|----|
B|----|
G|----|
D|-0--|
A|-0--|
E|-0--|



Intro
Verse   X8
Chorus
Verse   X8
Chorus
Solo
Verse   X8  (PM for first 2)
Chorus
End

            
            
Suggest correction
Creating personal tab
Creating personal tab
You can edit any tab online and save it as your Personal.

You can edit, replace or remove any tab part or add personal notes – all changes will be seen only by you.

Personal tabs can be accessed anytime from any device, even offline.
Learn more »
Give kudos to tab author, rate the tab!
1 2 3 4 5
comments
print report bad tab
guest
You may want to rate the tab now too:
select rating
Wanna post a correction for this tab? Suggest correction