Oops, an error
Loading. Please wait.

Territorial Pissings Bass Tab

version 1
version 1

Whole song

Interactive

24,619 views 39 this week
3 commentsread comments
1 2 3 4 5
x 14
add to favorites
launch autoscroll
font size
0
reset
guitar tuner
×
Best way to learn
"Territorial Pissings"
Autoscroll
slow
fast
+/-
esc
set tempo
stop
well here is a cool as Nirvana song and it's really simple

G--------------------------------------------------------|
D--------------------------------------------------------|
A----------------8-8-8-8-8-8-8-8-5-6-6-5-6-6-5-6-6-5-6-6-|
E-5-5-5-5-5-5-5-5----------------------------------------|

The Chorus is almost the same "Gotta find a way a better way..."

G--------------------------------------------------------|
D--------------------------------------------------------|
A----------------8-8-8-8-8-8-8-8-5-5-5-5-5-5-5-5-5-5-5-5-|
E-5-5-5-5-5-5-5-5----------------------------------------|

and when the guitar stops and it's just Kurt singing and the drums and the
bass
it's the same thing as the chorus.

That's it I told you it was simple
Suggest correction
comments
print report bad tab
3 comments total.
0 reply
sk8erguy69 10 Dec 13, 2002 07:00 PM

G---------------------------------------
D---------------------------------------
A--------------11-11-11-11-11-11-11-7-7-7-7-7-7-7-7-7-7-7-7-7-7-7-7-------------
E-7-7-7-7-7-7-7-------------------------

0 reply
Harley Fay 654 Mar 03, 2010 08:34 AM

wrong, are you tone deaf? all of you? In the chorus he is jumping back and forth from a D to an A. NOT from a D to a D sharp.

0 reply
charlotteanders 10 May 11, 2015 10:40 AM

ITS SO FAST

guest
You may want to rate the tab now too:
select rating
Wanna post a correction for this tab? Suggest correction