Oops, an error
Loading. Please wait.

Territorial Pissings Tab

version 2
version 2

Whole song

Interactive

110,736 views 231 this week
40 commentsread comments
1 2 3 4 5
x 73
add to favorites
launch autoscroll
font size
0
reset
how to read this tab
guitar tuner
Autoscroll
slow
fast
+/-
esc
set tempo
stop
Help us to improve Ultimate-Guitar.com Take our survey!
×
Tuning: Standard

All of the other tabs for this was wrong so i decided to put a correct one.
It is basicaly the same thing played over and over again.
I'll write the whole thing so you know the order it goes.

[Intro]
e|-----------------------------------------------------------------------------|
B|-----------------------------------------------------------------------------|
G|-------------------10-10-10-10-10-10-10-10--7-7-7-7-7-7-7-7-7-7-7-7-7-7-7-7--|
D|--7-7-7-7-7-7-7-7--10-10-10-10-10-10-10-10--7-7-7-7-7-7-7-7-7-7-7-7-7-7-7-7--|x2
A|--7-7-7-7-7-7-7-7--8--8--8--8--8--8--8--8---5-5-5-5-5-5-5-5-5-5-5-5-5-5-5-5--|
E|--5-5-5-5-5-5-5-5------------------------------------------------------------|

[Verse]
e|-----------------------------------------------------------------------------|
B|-----------------------------------------------------------------------------|
G|-------------------10-10-10-10-10-10-10-10--7-7-7-7-7-7-7-7-7-7-7-7-7-7-7-7--|
D|--7-7-7-7-7-7-7-7--10-10-10-10-10-10-10-10--7-7-7-7-7-7-7-7-7-7-7-7-7-7-7-7--|x2
A|--7-7-7-7-7-7-7-7--8--8--8--8--8--8--8--8---5-5-5-5-5-5-5-5-5-5-5-5-5-5-5-5--|
E|--5-5-5-5-5-5-5-5------------------------------------------------------------|

[Chorus]
e|-----------------------------------------------------------------------------|
B|-----------------------------------------------------------------------------|
G|-------------------10-10-10-10-10-10-10-10--7-7-7-7-7-7-7-7-7-7-7-7-7-7-7-7--|
D|--7-7-7-7-7-7-7-7--10-10-10-10-10-10-10-10--7-7-7-7-7-7-7-7-7-7-7-7-7-7-7-7--|x2
A|--7-7-7-7-7-7-7-7--8--8--8--8--8--8--8--8---5-5-5-5-5-5-5-5-5-5-5-5-5-5-5-5--|
E|--5-5-5-5-5-5-5-5------------------------------------------------------------|

[Verse]
e|-----------------------------------------------------------------------------|
B|-----------------------------------------------------------------------------|
G|-------------------10-10-10-10-10-10-10-10--7-7-7-7-7-7-7-7-7-7-7-7-7-7-7-7--|
D|--7-7-7-7-7-7-7-7--10-10-10-10-10-10-10-10--7-7-7-7-7-7-7-7-7-7-7-7-7-7-7-7--|x2
A|--7-7-7-7-7-7-7-7--8--8--8--8--8--8--8--8---5-5-5-5-5-5-5-5-5-5-5-5-5-5-5-5--|
E|--5-5-5-5-5-5-5-5------------------------------------------------------------|

[Chorus]
e|-----------------------------------------------------------------------------|
B|-----------------------------------------------------------------------------|
G|-------------------10-10-10-10-10-10-10-10--7-7-7-7-7-7-7-7-7-7-7-7-7-7-7-7--|
D|--7-7-7-7-7-7-7-7--10-10-10-10-10-10-10-10--7-7-7-7-7-7-7-7-7-7-7-7-7-7-7-7--|x4
A|--7-7-7-7-7-7-7-7--8--8--8--8--8--8--8--8---5-5-5-5-5-5-5-5-5-5-5-5-5-5-5-5--|
E|--5-5-5-5-5-5-5-5------------------------------------------------------------|

[Bridge]
e|E--------------------|
B|----------7----------|
G|------------7--------|
D|------7-------7-7----|
A|------7---------7----|
E|--5-5-5---------5----|

[Chorus]
e|-----------------------------------------------------------------------------|
B|-----------------------------------------------------------------------------|
G|-------------------10-10-10-10-10-10-10-10--7-7-7-7-7-7-7-7-7-7-7-7-7-7-7-7--|
D|--7-7-7-7-7-7-7-7--10-10-10-10-10-10-10-10--7-7-7-7-7-7-7-7-7-7-7-7-7-7-7-7--|x8
A|--7-7-7-7-7-7-7-7--8--8--8--8--8--8--8--8---5-5-5-5-5-5-5-5-5-5-5-5-5-5-5-5--|
E|--5-5-5-5-5-5-5-5------------------------------------------------------------|

 [Ending]
e|---------------------|
B|---------------------|
G|---------------------|
D|---7-----------------|
A|---7-----------------|
E|---5-----------------|



Suggest correction
comments
print report bad tab
40 comments total. Showing first comments.
+1 reply
NiRvanAcobain 10 Jun 23, 2004 12:00 AM

Good tab dude.

0 reply
Josué 80 Sep 03, 2004 12:00 AM

very good, you beat me to tabbing this! i was going to submit it, and mine was EXACTLY like yours...
good job...
easy song anyway... words are easy to sing/say/mumble too...

+1 reply
skatersic666 557 Oct 01, 2004 12:00 AM

Good tab

guest
You may want to rate the tab now too:
select rating
Wanna post a correction for this tab? Suggest correction