Oops, an error
Loading. Please wait.

Territorial Pissings bass

version 4
version 4
by Nirvana
559 views 18 this week
no commentswrite comment
1 2 3 4 5
x 4
add to favorites
×
Save as Personal and add changes to this tab that will be seen only by you. Learn more ›
×
You can save this tab as Personal to edit and correct it or add notes. All changes will be seen only by you. Learn more »
launch autoscroll
font size
0
reset
guitar tuner
backing track
0:00
0:00
edit
Autoscroll
slow
fast
+/-
esc
set tempo
stop
Author
Difficulty
                       Territorial Pissings - Nirvana
 ______________________________________________________________________________
 Tabbed by: Tapwater                        E-mail: jordanfreeman37@yahoo.co.uk


Tuning: Standard (E-A-D-G)


Bass Intro

You play this bit just as the drum roll is about to finish.
Then move straight into the verse part.

G|------|
D|------|
A|------|
E|-15\5-| 


Verse.

You play this bit straight after Bass Intro.

G|---------------------------------------------------------------------|
D|---------------------------------------------------------------------|
A|---------------8--8-8--8-8-8-----------------------------------------|
E|-5--5-5--5-5-5---------------10--10-10--10-10-10-10--10-10--10-10-10-| 


Chorus.

This is pretty much the same but with a slight change to the bassline.

G|---------------------------------------------------------------------|
D|---------------------------------------------------------------------|
A|---------------8--8-8--7-8p7-----------------------------------------|
E|-5--5-5--5-5-5---------------10--10-10--10-10-10-10--10-10--10-10-10-|


Bridge.

This part is pretty similar to the verse except it has a slight difference in the ending.
This bit plays when the guitar dies down a bit and you hear the bass a lot more clearly.
This bit will be identified when you hear Kurt Cobain sing the following line:
"Just because you're paranoid"

G|---------------------------------------------------------------------|
D|---------------------------------------------------------------------|
A|---------------8--8-8--8-8-8-----------------------------------------|   
E|-5--5-5--5-5-5---------------10--10-10--10-10-10-10--10-10--10-10-10-|

G|----------------------------------------------------------------------|
D|----------------------------------------------------------------------|
A|---------------8--8-8--8-8-8------------------------------------------|
E|-5--5-5--5-5-5---------------10--10-10--10-10-10-10--10-10--10-10-10b-|


Outro.

G|---------------------------------------------------------------------|
D|---------------------------------------------------------------------|         
A|---------------8--8-8--7-8p7-----------------------------------------|         x7
E|-5--5-5--5-5-5---------------10--10-10--10-10-10-10--10-10--10-10-10-|

G|---------------------------------------------------------------------------|
D|---------------------------------------------------------------------------|
A|---------------8--8-8--7-8p7-----------------------------------------------|   x1
E|-5--5-5--5-5-5---------------10--10-10--10-10-10-10--10-10--10-10-10/15\5b-|



Order of the song.

Bass Intro  x1
Verse       x2
Chorus      x2
Verse       x2
Chorus      x4
Verse       x2
Bridge      x1
Outro       x1      


Tablature Legend.
 
b = Bend
P = Pull Off
/ = Slide Up
\ = Slide Down


I included the notes that you play with this tab, as to show the authenticity of it
and teach novice players those notes, so that they may learn the notes as they play.

15 = G
10 = D
8  = F
7  = E
5  = A

            
            
Suggest correction
Creating personal tab
Creating personal tab
You can edit any tab online and save it as your Personal.

You can edit, replace or remove any tab part or add personal notes – all changes will be seen only by you.

Personal tabs can be accessed anytime from any device, even offline.
Learn more »
comments
print report bad tab
guest
You may want to rate the tab now too:
select rating
Wanna post a correction for this tab? Suggest correction