Oops, an error
Loading. Please wait.

Territorial Pissings bass

version 5
version 5
by Nirvana
61 views 3 this week
no commentswrite comment
1 2 3 4 5
2 more votes to show rating
add to favorites
×
Save as Personal and add changes to this tab that will be seen only by you. Learn more ›
×
You can save this tab as Personal to edit and correct it or add notes. All changes will be seen only by you. Learn more »
launch autoscroll
font size
0
reset
guitar tuner
backing track
0:00
0:00
edit
Autoscroll
slow
fast
+/-
esc
set tempo
stop
Author
Difficulty
[Intro] 
(Play when drums start)
G|---------------------------|
D|---------------------------|
A|------8^---5^--5-5-5-5-5---|
E|--5^-----------------------|

[Verse]
"When I was an alien"
G|-------------------|------------------|---------------------------------|
D|-------------------|------------------|---------------------------------|
A|-------------------|-8-8-8-8-8-8-8-8-0|-5-5-5-5-5-5-5-5-5-5-5-5-5-5-5-5-|
E|--0-5-5-5-5-5-5-5-5|------------------|---------------------------------|

"Cultures weren't opinions"
G|-------------------|------------------|---------------------------------|
D|-------------------|------------------|---------------------------------|
A|-------------------|-8-8-8-8-8-8-8-8-0|-5-5-5-5-5-5-5-5-5-5-5-5-5-5-5-5-|
E|--0-5-5-5-5-5-5-5-5|------------------|---------------------------------|

[Chorus]
"Gotta find a way..."
G|-------------------|------------------|---------------------------------|
D|-------------------|------------------|---------------------------------|
A|-------------------|-8-8-8-8-8-8-8-8-8|-0-5-5-0-3-5-5-0-3-5-5-0-3-5-5-5-|
E|--0-5-5-5-5-5-5-5-5|------------------|---------------------------------|

"Gotta find a way..."
G|-------------------|------------------|---------------------------------|
D|-------------------|------------------|---------------------------------|
A|-------------------|-8-8-8-8-8-8-8-8-8|-0-5-5-0-3-5-5-0-3-5-5-0-3-5-5-5-|
E|--0-5-5-5-5-5-5-5-5|------------------|---------------------------------|

[Verse]
"Never met a wise man"
G|-------------------|------------------|---------------------------------|
D|-------------------|------------------|---------------------------------|
A|-------------------|-8-8-8-8-8-8-8-8-0|-5-5-5-5-5-5-5-5-5-5-5-5-5-5-5-5-|
E|--0-5-5-5-5-5-5-5-5|------------------|---------------------------------|

"If so it's a woman"
G|-------------------|-------------------|--------------------------------|
D|-------------------|-------------------|--------------------------------|
A|-------------------|-8-8-8-8-8-8-8-8-0-|5-5-5-5-5-5-5-5-5-5-5-5-5-5-5-5-|
E|--0-5-5-5-5-5-5-5-5|-------------------|--------------------------------|

[Chorus]
"Gotta find a way..."
G|-------------------|---------------------|------------------------------|
D|-------------------|---------------------|------------------------------|
A|-------------------|-8-8-8-8-8-8-8-8-8-0-|5-5-0-3-5-5-0-3-5-5-0-3-5-5-5-|
E|--0-5-5-5-5-5-5-5-5|---------------------|------------------------------|

"Gotta find a way..."
G|-------------------|---------------------|------------------------------|
D|-------------------|---------------------|------------------------------|
A|-------------------|-8-8-8-8-8-8-8-8-8-0-|5-5-0-3-5-5-0-3-5-5-0-3-5-5-5-|
E|--0-5-5-5-5-5-5-5-5|---------------------|------------------------------|

"Gotta find a way..."
G|-------------------|---------------------|------------------------------|
D|-------------------|---------------------|------------------------------|
A|-------------------|-8-8-8-8-8-8-8-8-8-0-|5-5-0-3-5-5-0-3-5-5-0-3-5-5-5-|
E|--0-5-5-5-5-5-5-5-5|---------------------|------------------------------|

"Gotta find a way..."
G|-------------------|---------------------|------------------------------|
D|-------------------|---------------------|------------------------------|
A|-------------------|-8-8-8-8-8-8-8-8-8-0-|5-5-0-3-5-5-0-3-5-5-0-3-5-5-5-|
E|--0-5-5-5-5-5-5-5-5|---------------------|------------------------------|

[Bridge]
G|-------------------|-------------------|--------------------------------|
D|-------------------|-------------------|--------------------------------|
A|-------------------|-8-8-8-8-8-8-8-8-0-|5-5-5-5-5-5-5-5-5-5-5-5-5-5-5-5-|
E|--0-5-5-5-5-5-5-5-5|-------------------|--------------------------------|

G|-------------------|-------------------|--------------------------------|
D|-------------------|-------------------|--------------------------------|
A|-------------------|-8-8-8-8-8-8-8-8-0-|5-5-5-5-5-5-5-5-5-5-5-5-5-5-5-5-|
E|--0-5-5-5-5-5-5-5-5|-------------------|--------------------------------|

[Verse]
"Just because you're paranoid"
G|-------------------|-------------------|--------------------------------|
D|-------------------|-------------------|--------------------------------|
A|-------------------|-8-8-8-8-8-8-8-8-0-|5-5-5-5-5-5-5-5-5-5-5-5-5-5-5-5-|
E|--0-5-5-5-5-5-5-5-5|-------------------|--------------------------------|

"Don't mean they're not after you"
G|-------------------|-------------------|--------------------------------|
D|-------------------|-------------------|--------------------------------|
A|-------------------|-8-8-8-8-8-8-8-8-0-|5-5-5-5-5-5-5-5-5-5-5-5-5-5-5-5-|
E|--0-5-5-5-5-5-5-5-5|-------------------|--------------------------------|

[Chorus]
"Gotta find a way..."
G|-------------------|---------------------|------------------------------|
D|-------------------|---------------------|------------------------------|
A|-------------------|-8-8-8-8-8-8-8-8-8-0-|5-5-0-3-5-5-0-3-5-5-0-3-5-5-5-|
E|--0-5-5-5-5-5-5-5-5|---------------------|------------------------------|

"Gotta find a way..."
G|-------------------|---------------------|------------------------------|
D|-------------------|---------------------|------------------------------|
A|-------------------|-8-8-8-8-8-8-8-8-8-0-|5-5-0-3-5-5-0-3-5-5-0-3-5-5-5-|
E|--0-5-5-5-5-5-5-5-5|---------------------|------------------------------|

"Gotta find a way..."
G|-------------------|---------------------|------------------------------|
D|-------------------|---------------------|------------------------------|
A|-------------------|-8-8-8-8-8-8-8-8-8-0-|5-5-0-3-5-5-0-3-5-5-0-3-5-5-5-|
E|--0-5-5-5-5-5-5-5-5|---------------------|------------------------------|

"Gotta find a way..."
G|-------------------|---------------------|------------------------------|
D|-------------------|---------------------|------------------------------|
A|-------------------|-8-8-8-8-8-8-8-8-8-0-|5-5-0-3-5-5-0-3-5-5-0-3-5-5-5-|
E|--0-5-5-5-5-5-5-5-5|---------------------|------------------------------|

"Gotta find a way..."
G|-------------------|---------------------|------------------------------|
D|-------------------|---------------------|------------------------------|
A|-------------------|-8-8-8-8-8-8-8-8-8-0-|5-5-0-3-5-5-0-3-5-5-0-3-5-5-5-|
E|--0-5-5-5-5-5-5-5-5|---------------------|------------------------------|

"Gotta find a way..."
G|-------------------|---------------------|------------------------------|
D|-------------------|---------------------|------------------------------|
A|-------------------|-8-8-8-8-8-8-8-8-8-0-|5-5-0-3-5-5-0-3-5-5-0-3-5-5-5-|
E|--0-5-5-5-5-5-5-5-5|---------------------|------------------------------|

"Gotta find a way..."
G|-------------------|---------------------|------------------------------|
D|-------------------|---------------------|------------------------------|
A|-------------------|-8-8-8-8-8-8-8-8-8-0-|5-5-0-3-5-5-0-3-5-5-0-3-5-5-5-|
E|--0-5-5-5-5-5-5-5-5|---------------------|------------------------------|

"Gotta find a way..."
G|-------------------|---------------------|------------------------------|
D|-------------------|---------------------|------------------------------|
A|-------------------|-8-8-8-8-8-8-8-8-8-0-|5-5-0-3-5-5-0-3-5-5-0-3-5-5-5-|
E|--0-5-5-5-5-5-5-5-5|---------------------|------------------------------|

[Outro]
G|----------|
D|----------|
A|--4/6-0---|
E|----------|
 
************************************

| /  Slide up
| ^  Let ring

************************************

            
            
Suggest correction
Creating personal tab
Creating personal tab
You can edit any tab online and save it as your Personal.

You can edit, replace or remove any tab part or add personal notes – all changes will be seen only by you.

Personal tabs can be accessed anytime from any device, even offline.
Learn more »
Give kudos to tab author, rate the tab!
1 2 3 4 5
comments
print report bad tab
guest
You may want to rate the tab now too:
select rating
Wanna post a correction for this tab? Suggest correction