Oops, an error
Loading. Please wait.
We have an official The Man Who Sold The World tab made by UG professional guitarists. Check out the tab »
×

The Man Who Sold The World bass

by Nirvana
109,119 views 69 this week
12 commentsread comments
1 2 3 4 5
x 53
add to favorites
×
Save as Personal and add changes to this tab that will be seen only by you. Learn more ›
×
You can save this tab as Personal to edit and correct it or add notes. All changes will be seen only by you. Learn more »
launch autoscroll
font size
0
reset
guitar tuner
backing track
0:00
0:00
edit
Autoscroll
slow
fast
+/-
esc
set tempo
stop
NIRVANA
THE MAN WHO SOLD THE WORLD
UNPLUGGED IN NEW YORK

STANDARD TUNING
PLAY THROUGH WITH THE SONG AND ITS PRETTY SELF EXPLANATORY. ENJOY.

[INTRO]

G|------------|------------|----------------|------------------|
D|------------|------------|----------------|------------------|
A|------------|--9---------|-7-7-7--------6-|-7-7-7----7-6-5-4-|
E|------------|------------|-------7--7-9---|-------7----------|


[VERSE]

WE PASSED UPON THE STAIR...
G|------------|---------------|--------------|----------------|
D|------------|--------6------|--------------|----------------|
A|------------|-----6-----6-6-|--------------|------11---11---|
E|------------|-4-------------|-4--4--4-6-7--|-9--9----9----9-|

G|-----------------|------------|-------------|--------------|
D|-----------------|------------|----6--6-4---|----9---------|
A|----12-11-9------|----6-------|-----------6-|-7----7-7-7-7-|
E|-9----------12-11|-4----4-4-4-|-4-----------|--------------|

G|-------------|----------------|------------|---------------|
D|-------------|----------------|------------|---------------|
A|---7-7-8-7-5-|----9-----------|------------|---------------|
E|-------------|-7-7----7-7-7-7-|--7--9-7-6--|-4--4--4-4-4-4-|

G|-------------|----------------|-------------|
D|-------------|----------------|-------------|
A|-------------|------11--------|----11-------|
E|-4--4--4-4-4-|-9--9-----9-9-9-|-9-----9-9-9-|


[CHORUS]

G|-----------------|-----------------|-----------------|----------------|
D|-----------6-7-9-|-----------6-7-9-|-----------6-7-9-|--------------2-|
A|-----6-7-9-------|-----6-7-9-------|-----6-7-9-------|--------2-4-5---|
E|-7-9-------------|-7-9-------------|-7-9-------------|-0-2-4-5--------|

G|----------|----------------|-----------------|----------------|
D|----------|--------------2-|-----------6-7-9-|--------------2-|
A|------7---|--------2-4-5---|-----6-7-9-------|--------2-4-5---|
E|-7--7---7-|-0-2-4-5--------|-7-9-------------|-0-2-4-5--------|

G|----------|
D|----------|
A|------7---|
E|-7--7---7-|


[BACK TO INTRO]

G|------------|------------|----------------|------------------|
D|------------|-11---------|----------------|------------------|
A|-11---------|------------|-7-7-7--------6-|-7-7-7----7-6-5-4-|
E|------------|------------|-------7--7-9---|-------7----------|


PLAY VERSE THROUGH AGAIN


PLAY CHORUS


THEN SLIGHTLY DIFFERENT [CHORUS]

G|------------|------------|-----------------|----------------|
D|------------|-11---------|-----------6-7-9-|--------------2-|
A|-11---------|------------|-----6-7-9-------|--------2-4-5---|
E|------------|------------|-7-9-------------|-0-2-4-5--------|

G|----------|----------------|-----------------|----------------|
D|----------|--------------2-|-----------6-7-9-|--------------2-|
A|------7---|--------2-4-5---|-----6-7-9-------|--------2-4-5---|
E|-7--7---7-|-0-2-4-5--------|-7-9-------------|-0-2-4-5--------|

G|----------|
D|----------|
A|------7---|
E|-7--7---7-|


[GUITAR SOLO]

G|------------|------------|
D|------------|-11---------|
A|-11---------|------------|
E|------------|------------|

G| |----------------|------------------|----------------|----------------|
D|O|----------------|------------------|----------------|----------------|
A|O|-7-7-7--------6-|-7-7-7----7-6-5-4-|-4-4-4------3-4-|-4-4-4---4-3-2--|
E| |-------7--7-9---|-------7----------|-------4--4-----|-------4--------|

G|--------------------|----------------|----------------| |
D|-------------6------|----------------|----------------|O| X3
A|---6----------------|-4-4-4------3-4-|-4-4-4------3-4-|O|
E|-4----4--4-4---4-6-7|-------4--4-----|-------4--4-----| |


[END ON]

G|---------|
D|---------|
A|-7-------|
E|---------|


HOPEFULLY HAVNT MADE THIS TOTALLY INDECIPHERABLE, IM PRETTY SURE ITS 99% RIGHT.
THIS IS MY FIRST TAB, SO GIMME PLENTY OF FEEDBACK. X




            
            
Suggest correction
Creating personal tab
Creating personal tab
You can edit any tab online and save it as your Personal.

You can edit, replace or remove any tab part or add personal notes – all changes will be seen only by you.

Personal tabs can be accessed anytime from any device, even offline.
Learn more »
comments
print report bad tab
12 comments total. Showing first comments. show 1 bad comment
+2 reply
faallip 10 Jan 13, 2011 01:55 PM

Pretty damn good tab

+2 reply
the chalky one 40 Oct 09, 2011 12:11 PM

thats pretty good dude thanks for posting them

guest
Wanna post a correction for this tab? Suggest correction