Oops, an error
Loading. Please wait.
We have an official Tourettes tab made by UG professional guitarists. Check out the tab »
×
by Nirvana
3,617 views 9 this week
2 commentsread comments
1 2 3 4 5
x 5
add to favorites
×
Save as Personal and add changes to this tab that will be seen only by you. Learn more ›
×
You can save this tab as Personal to edit and correct it or add notes. All changes will be seen only by you. Learn more »
launch autoscroll
font size
0
reset
guitar tuner
backing track
0:00
0:00
edit
Autoscroll
slow
fast
+/-
esc
set tempo
stop
Author
Difficulty
Band:Nirvana
Album:In Utero
Song:Tourette's
Tuning:Standard
~~~=Hold note
/=slide up
\=slide down
This is one of the easiest songs on bass that i know,
i hope you have fun with it.

Intro: Rest for 2 messures.
Verse 1:
G|----------------------------------|
D|----------------------------------|
A|----------------------------------|
E|-1-1-1-1-5-5-5-5-6-6-6-6-2-2-2-2--|x6


Chorus 1:            
G|-------------------------------------|
D|-------------------------------------|
A|-------------------------------------|
E|-0--------0--------0--------0--------|

G|------------------------------------------|
D|------------------------------------------|
A|------------------------------------------|
E|-0--------0--------0--------0--0-0-0-0-/\-|


Verse 2:
G|----------------------------------|
D|----------------------------------|
A|----------------------------------|
E|-1-1-1-1-5-5-5-5-6-6-6-6-2-2-2-2--|x4


Chorus 2:            
G|-------------------------------------|
D|-------------------------------------|
A|-------------------------------------|
E|-0--------0--------0--------0--------|
  
G|------------------------------------------|
D|------------------------------------------|
A|------------------------------------------|
E|-0--------0--------0--------0--0-0-0-0-/\-|



Verse 3:
G|----------------------------------|
D|----------------------------------|
A|----------------------------------|
E|-1-1-1-1-5-5-5-5-6-6-6-6-2-2-2-2--|x8


End on:
G|-----------|
D|-----------|
A|-----------|
E|-1~~~~~~~--|
Suggest correction
Creating personal tab
Creating personal tab
You can edit any tab online and save it as your Personal.

You can edit, replace or remove any tab part or add personal notes – all changes will be seen only by you.

Personal tabs can be accessed anytime from any device, even offline.
Learn more »
comments
print report bad tab
2 comments total.
0 reply
brandon.camel.5 10 Feb 11, 2014 12:13 PM

Pretty accurate Id say. For what it's worth, I find it easier to switch to the next string as opposed to playing on the fifth and sixth fret. This was probably the easiest song I've ever learned on bass

+1 reply
elreybakano02 10 Jun 23, 2016 06:13 PM

Is more easy do this:
G|----------------------------------|
D|----------------------------------|
A|---------0-0-0-0-1-1-1-1----------|
E|-1-1-1-1-----------------2-2-2-2--|

guest
You may want to rate the tab now too:
select rating
Wanna post a correction for this tab? Suggest correction