Oops, an error
Loading. Please wait.

Tourettes Tab

version 3
version 3

Whole song

Interactive

62,392 views 162 this week
32 commentsread comments
1 2 3 4 5
x 43
add to favorites
launch autoscroll
font size
0
reset
how to read this tab
guitar tuner
Autoscroll
slow
fast
+/-
esc
set tempo
stop
Help us to improve Ultimate-Guitar.com Take our survey!
×
Author
[Intro]
                                                  
e|---------------------------------------|        
B|---------------------------------------|        
G|---------------------------------------|     x4   
D|-3-3-3-3-/-7-7-7-7-/-8-8-8-8-/-4-4-4-4-|        
A|-3-3-3-3-/-7-7-7-7-/-8-8-8-8-/-4-4-4-4-|        
E|-1-1-1-1-/-5-5-5-5-/-6-6-6-6-/-2-2-2-2-|        


[Verse]

e|---------------------------------------|        
B|---------------------------------------|        
G|---------------------------------------|        
D|-3-3-3-3-/-7-7-7-7-/-8-8-8-8-/-4-4-4-4-|      x4  
A|-3-3-3-3-/-7-7-7-7-/-8-8-8-8-/-4-4-4-4-|        
E|-1-1-1-1-/-5-5-5-5-/-6-6-6-6-/-2-2-2-2-|


[Chorus]

e|------------|
B|------------|              
G|3-2--2-3p2p0|
D|------------| x8
A|------------|
E|------------|


[Verse]

e|---------------------------------------|        
B|---------------------------------------|        
G|---------------------------------------|        
D|-3-3-3-3-/-7-7-7-7-/-8-8-8-8-/-4-4-4-4-|        
A|-3-3-3-3-/-7-7-7-7-/-8-8-8-8-/-4-4-4-4-|        
E|-1-1-1-1-/-5-5-5-5-/-6-6-6-6-/-2-2-2-2-|


[Chorus]

e|------------|
B|------------|              
G|3-2--2-3p2p0|
D|------------| x8
A|------------|
E|------------|


[Outro]

e|---------------------------------------|            e|---------------|
B|---------------------------------------|            B|---------------|
G|---------------------------------------|  x8        G|---------------|
D|-3-3-3-3-/-7-7-7-7-/-8-8-8-8-/-4-4-4-4-|            D|-3---------\-0-|
A|-3-3-3-3-/-7-7-7-7-/-8-8-8-8-/-4-4-4-4-|            A|-3---------\-0-|
E|-1-1-1-1-/-5-5-5-5-/-6-6-6-6-/-2-2-2-2-|            E|-1---------\-0-|


************************************

| p  Pull-off
| /  Slide up
| \  Slide down

************************************


Lyrics:

(moderate rock) *spoken*

mayday, every day, my day
could've had a heart attack, my heart
we don't know anything, my heart
we all want something fair for my heart

hey hey heeeyyyyyy

out of town, out of fire is my heart
queen of liars out to take my heart
one more at the phone of my heart
one more at the door of my heart

hey hey heeeyyyyy

mean heart, cold heart, cold heart, cold heart, cold heart,
cold heart, cold heart, cold heart.



Suggest correction
comments
print report bad tab
32 comments total. Showing first comments.
+1 reply
ironman4 10 May 14, 2004 12:00 AM

its actually tourette's the ' is right there look on in utero

+1 reply
ironman4 10 May 14, 2004 12:00 AM

great tab though

+1 reply
feesk8ordie 1,082 Feb 09, 2005 12:00 AM

quality tab 5 stars

guest
You may want to rate the tab now too:
select rating
Wanna post a correction for this tab? Suggest correction