Oops, an error
Loading. Please wait.

Where Did You Sleep Last Night Bass

version 2
version 2

Whole song

Interactive

by Nirvana
23,662 views 33 this week
1 commentread comment
1 2 3 4 5
x 6
add to favorites
launch autoscroll
font size
0
reset
guitar tuner
×
Best way to learn
"Where Did You Sleep Last Night"
Autoscroll
slow
fast
+/-
esc
set tempo
stop
NIRVANA
WHERE DID YOU SLEEP LAST NIGHT?

This is the whole song, it's extremly easy so do something of your own with it!
Whole Song:
G:----------------------------------------|
D:----------------------------------------|
A:----------------------------------------|
E:-0-0-0-7-7-7-5-5-5-3-3-3-7-7-7--3-3-3-0-|
Here's the way I play it:
G:----------------------------------------------|
D:----------------------------------------------|
A:--------9-9-9\7-7-7\5-5-5\9-9-9---------------|
E:-0-0-0--7-7-7\5-5-5\3-3-3\7-7-7-3-5-3-5-3-0-0-|
Suggest correction
comments
print report bad tab
1 comment total.
0 reply
Creeper113 113 Jul 06, 2010 04:09 PM

sounds good.
Try this one out.

A---7--7--7--------------2--22--2--22---7-7-|
E-0--0---0--5--55--3~~~~--------------0---0-|

Its a personal transcription, I wrote it so my brother whose a novice, so he could play with me on guitar

guest
You may want to rate the tab now too:
select rating
Wanna post a correction for this tab? Suggest correction