Oops, an error
Loading. Please wait.

White Lace And Strange Tab

version 1
version 1

Whole song

Interactive

1,322 views 1 this week
4 commentsread comments
1 2 3 4 5
x 7
add to favorites
launch autoscroll
font size
0
reset
how to read this tab
guitar tuner
×
Best way to learn
"White Lace And Strange"
Autoscroll
slow
fast
+/-
esc
set tempo
stop
White lace and strange by Nirvana


intro
E]--------------------------------------------------------------------------|
B]--------------------------------------------------------------------------|
G]--------------------------------------------------------------------------|
D]--------------------------------------------------------------------------|
A]---7--7-------------(5-7-5-7-5-7-5-7-5-7-5-7)-----------------------------|
e]---0--0--4--5--6--7-------------------------------------------------------|

chorus
E]--------------------------------------------------------------------------|
B]--------------------------------------------------------------------------|
G]---9--9--7--9--9--9--9--7/-9----------------------------------------------|
D]---9--9--7--9--9--9--9--7/-9--9--9--9-------------------------------------|
A]---7--7--5--7--7--7--7--5/-7--9--9--9-------------------------------------|
e]------------------------------7--7--7-------------------------------------|


solo
just improvise it


/ slide up
() flick it a bunch of times
Suggest correction
comments
print report bad tab
4 comments total. Showing first comments.
0 reply
killed yr idols 70 Sep 06, 2005 12:00 AM

i must disagree, it is..
D|-----------------1-3--1-3--|
A|----------0-1-2-3----------|
E|--1---1-1------------------|

+1 reply
madbass 641 Apr 09, 2006 12:14 AM

So WRONG! I am going to Tab this song better than anyone!!!

+1 reply
madbass 641 Apr 09, 2006 12:15 AM

killed yr idols is SO Wrong as well!!!

guest
You may want to rate the tab now too:
select rating
Wanna post a correction for this tab? Suggest correction