Oops, an error
Loading. Please wait.

You Know Youre Right Tab

version 1
by Nirvana
78,095 views 36 this week
27 commentsread comments
1 2 3 4 5
x 37
add to favorites
launch autoscroll
font size
0
reset
how to read this tab
guitar tuner
backing track
0:00
0:00
×
Best way to learn
"You Know Youre Right"
Autoscroll
slow
fast
+/-
esc
set tempo
stop
Tuning
D# G# C# F# A# D#
Author/Artist: Nirvana
Title: You Know You're Right
Album: Nirvana

TUNING:  Tune the LOW E STRING down 1/2 step

D#|-|----------------------------------------------------------------------------|
A#|-|----------------------------------------------------------------------------|
F#|-|------7--5----------5--7-7-------7--5----7--7----5------------7--5----------|
C#|-|--------------5--7---------------------7------7-----5-5---------------5--7--|
G#|-|-5h7--------5---------------5h7--------------------------5h7--------5-------|
D#|-|----------------------------------------------------------------------------|
  Harmonics  Guitar 2            Harmonics              Harmonics

D#|-|----------------------------------------------------------------------------|
A#|-|----------------------------------------------------------------------------|
F#|-|----------------------------------------------------------------------------|
C#|-|----------------------------------------------------------------------------|
G#|-|----------------------------------------------------------------------------|
D#|-|-0h2----------0h2-----------0h2----------0--2-2----------0h2----------0h2---|
   v v Guitar1  v v           v v          v  v v          v v          v v

D#|---------------------------|--------------------------------------------------|
A#|---------------------------|--------------------------------------------------|
F#|----5--7-7-------7--5------|--------------------------------------------------|
C#|-7-------------------------|--------------------------------------------------|
G#|------------5h7------------|--------------------------------------------------|
D#|---------------------------|--------------------------------------------------|
           Harmonics

D#|---------------------------|--------------------------------------------------|
A#|---------------------------|--------------------------------------------------|
F#|---------------------------|---------3-----3----------------------------------|
C#|---------------------------|------------------------3-----3---3-----------3---|
G#|---------------------------|-3----3------3-----3-3--x---3---3-----------3-----|
D#|------------0h2------------|-0h2-------------2------2---0-------2--2p0--0---0-|
            v v   Palm Muted>v    v  ^   v ^ v ^ v  v   v ^ v ^ v  v

D#|---------------------------------------------------------------------------|--|
A#|---------------------------------------------------------------------------|--|
F#|-----------------------------3---------------------------------------------|--|
C#|-------------3---3----3----------3-----------3---------------3---3---------|--|
G#|-----------3---3------3--------3---------------3-------------x---x---------|--|
D#|-2-2--2p0--0---0---2--2p0--0---0---2--2p0--0---0-2-2--2p0----0-0-2-2--2p0--|--|
                                                             ^ v ^ v  v

D#|-|-------------------------|------------------------------|----|--------------|
A#|-|-------------------------|------------------------------|----|--------------|
F#|-|------3----3---3---------|------------------------------|----|--------------|
C#|-|-3----3----3---3---------|---3---3----3----3---3--------|-3x-|--------------|
G#|-|-3----3------------------|-3---3---3--3--3---3---3------|----|--------------|
D#|-|-0-------0---0---2--2p0--|---------2--2----------2--2p0-|----|--------------|
  verse P.M.               P.M.verse riff continue               interlude>>>

D#|---|----------------------------------------------------|------------|--------|
A#|---|----------------------------------------------------|------------|--------|
F#|---|-6--6---6--6-6--6-6--6-6--8--8----------------------|------------|--------|
C#|---|-6--6---6--6-6--6-6--6-6--8--8--8--8-8--8-8--8-8\---|------------|--------|
G#|---|-4--4---4--4-4--4-4--4-4--6--6--6--6-6--6-6--6-6\---|------------|--------|
D#|---|-x--x---x--x-x--x-x--x-x--7--7--7--7-7--7-7--7-7\---|------------|--------|
 Dis.^  v   v  v ^  ^ v  v ^ mv  ^                 ^      verse riff

D#|-------|------------------------------------------------|---------------------|
A#|-------|-------6------------6---------8-----------------|---------------------|
F#|-------|-------------6----------------------8------8----|---------------------|
C#|-------|----6------6-----6---------8------8-----8--8-8\-|---------------------|
G#|-------|-4----------------------6------------------6-6\-|---------------------|
D#|-------|---------------------------------------------7\-|---------------------|
         v  ^  v   v ^   v  ^                   dis^ v      chorus w/distor>>

D#|-|-----------------------------------------------------------------------|---|
A#|-|-----------------------------------------------------------------------|---|
F#|-|-----------------------------------------------------------------------|---|
C#|-|-1h3--3-3------1-1-1h3--3-3------1-1-1h3--3-3------1-1-1h3--3-3-3-3-1--|2x-|
G#|-|-3----3-3-3----3-3-3----3-3-3----3-3-3----3-3-3----3-3-3----3-3-3-3-3--|---|
D#|-|-0h2--2-2-2p0--0-0-0h2--2-2-2p0--0-0-0h2--2-2-2p0--0-0-0h2--2-2-2-2-0--|---|
 > v    v ^ v    v ^ v                                        v ^ v ^ v <

D#|--|---------------------------------------------------------------13vvvvvvvvv-|
A#|--|---------------------------------------------------------------------------|
F#|--|---------------------------------------------------------------------------|
C#|--|-----------------------------------------------------4b5r4b5r4-------------|
G#|--|-11---11-11-11-11-11-11---11-11-11-11\8---8---8-8----x---------------------|
D#|--|-10---10-10-10-10-10-10---10-10-10-10\7---7---7-7/10\2b3r2b3r3-------------|
    v    ^  v  ^  v  ^  v    ^  v  ^  v  v   v   v v    v         v

D#|-vvvvvvvvvvvvvvvvv15b16vvvvvvvvvvvvvvvvvvvvvv15b17r15-13vvvvv--|--------------|
A#|---------------------------------------------------------------|--------------|
F#|---------------------------------------------------------------|--------------|
C#|---------------------------------------------------------------|--------------|
G#|---------------------------------------------------------------|--------------|
D#|---------------------------------------------------------------|--------------|
                  v                          v        v      m

D#|-|------------|------------------------------------------------------|--------|
A#|-|------------|-------6------------6------------8-------------8b--x--|--------|
F#|-|------------|-------------6---------6----------------8----------x--|--------|
C#|-|------------|----6------6-----6------------8------8------8---------|--------|
G#|-|------------|-4---------4---------------6--------------------------|--------|
D#|-|------------|------------------------------------------------------|--------|
   verse riff                           m

D#|-|------------|-----------|--------|------|-----------------------------------|
A#|-|------------|-----------|--------|------|-----------------------------------|
F#|-|------------|-----------|--------|------|-----------------------------------|
C#|-|------------|-----------|--------|--4x--|-----------------------------------|
G#|-|------------|-----------|--------|------|-11--11-11-11-11-11-11----11-11-11-|
D#|-|------------|-----------|--------|------|-10--10-10-10-10-10-10----10-10-10-|
   verse riff   interlude   chorus


D#|------------------------------------------------------------------------------|
A#|------------------------------------------------------------------------------|
F#|-----------------------------------------10b11r10-11-11-12-12-13-13-14-14-12--|
C#|----3-3--3---3--3-3-3-3-----3-3-3-3-3-3---------------------------------------|
G#|-11-1-1--1---1--x-x-x-x-----x-x-x-x-x-x---------------------------------------|
D#|-10-------------2-2-2-2b3r2-0-0-2-2-2-2b--------------------------------------|
                                            m

D#|--------------------------------------------------|---------------------------|
A#|--------------------------------------------------|---------------------------|
F#|--------------------------------------------------|---------------------------|
C#|--------------------------------------------------|---------------------------|
G#|--------------------------------------------------|---------------------------|
D#|--------------------------------------------------|---------------------------|
 the rest I don't have check it out for yourself.

Downloaded from www.taborama.com


Nirvana - You Know Your Right
Tabbed By: Tony Gare
EMail: tonocusgare@yahoo.ca
Studio Version

Tabbed by Tony Gare

Tuned Down Half-Step (d# g# c# f# a# d#)

[Verse/Intro]
(Clean single coil)

[Intro] (x10)

   I will never bother you...
D#|----------------------------------|
A#|----------------------------------|
F#|----------------------------------|
C#|---------------4------4-----------|
G#|-------------4-4------4-----------|
D#|-------0h2-2-----0-0--------------|


Part 2(heavy fuzz) pre-chorus

D#|--------------------------------------------|
A#|--------------------------------------------|
F#|-------7---7--7777--7-7---9--9--9999--------|
C#|-------7---7--7777--7-7---9--9--9999--------|
G#|-------5---5--5555--5-5---7--7--7777--------|
D#|--------------------------------------------|

Part 3(clean) pre-chorus

D#|----------------------------------------------------------------------------|
A#|--------------7--------7-------------9-------9------------------------------|
F#|----------------7--------7-------------9-------9----------------------------|
C#|-----------7---------------7------9--------------9--------------------------|
G#|--------5----------5---------5/7----------7---------7-----------------------|
D#|----------------------------------------------------------------------------|

Chorus(heavy fuzz)

   hey...
D#|------------------------------------|
A#|------------------------------------|
F#|------------------------------------|
C#|--------------------4--4---4--444---|
G#|------5/105--------4--4---4--444----|
D#|------------------0h2--2--2u--000---|

D#|--------------------------------------------|
A#|--------------------------------------------|
F#|-------7---7--7777--7-7---9--9--9999--------|
C#|-------7---7--7777--7-7---9--9--9999--------|
G#|-------5---5--5555--5-5---7--7--7777--------|
D#|--------------------------------------------|


   Lick at end of Song   *feedback
D#|-------------------------------------|
A#|-------------------------------------|
F#|-------------------/11*~-------------|
C#|--------9-8-9------------------------|
G#|---------------9---------------------|
D#|-------------------------------------|


************************************

| Harmonics Lightly place finger over string and strike
| you will get a ringing sound.
| P.M. = Palm Muted
| Dis.=Distortion
| p=pull off
| b=bend
| r=release
| h=hammer on
| v=strum down
| ^=strum up

************************************
Suggest correction
comments
print report bad tab
27 comments total. Showing first comments.
0 reply
Rancidbass 0 Nov 03, 2002 07:00 PM

Yes, finally the you know your right Tab!!!

-1 reply
youngsterplaya 30 Nov 03, 2002 07:00 PM

AWSOME TAB!Cobain would be very proud!

-1 reply
TheToad 41 Nov 10, 2002 07:00 PM

Yes, I think this is the one! Very nice.

guest
You may want to rate the tab now too:
select rating
Wanna post a correction for this tab? Suggest correction