Oops, an error
Loading. Please wait.

You Know Youre Right Tab

version 4
4,126 views 3 this week
no commentswrite comment
1 2 3 4 5
x 5
add to favorites
launch autoscroll
font size
0
reset
how to read this tab
guitar tuner
×
Best way to learn
"You Know Youre Right"
Autoscroll
slow
fast
+/-
esc
set tempo
stop
#----------------------------------PLEASE NOTE--------------------------------#
#This file is the author's own work and represents their interpretation of the#
#song. You may only use this file for private study, scholarship, or research.#
#-----------------------------------------------------------------------------#
#-- File created with Instab - http://www.pconline.com/~smcarey/instab.html --#
#-----------------------------------------------------------------------------#

Author/Artist: Nirvana
Title: You Know You're Right
Transcribed By: DGreens


h hammer on
p pull off
/ slide up
\ slide down
m mute
A Arpeggio



Palm mute top four strings.
Tuning (eb A D G B E)



----|-------|
----|-------|
----|-------|
----|-------|
----|-------|
----|-0h2---|


  G1 Intro                                                                          



----|---------------------------------|--|--------------|
----|----------20------------20-------|--|---------20---|
----|-------19-----19-19--------19-19-|--|------19------|
----|-19h20--------------19-----------|--|-19h20--------|
----|---------------------------------|--|--------------|
----|---------------------------------|--|--------------|
 

  G2 Intro                                                                           






----------|-----------------|--|
----------|-----------------|--|
----------|-----------------|--|
-------3--|-----------------|--|
-----3----|---3---3---------|--|
-0h2------|-0---0---2--2p0--|--|
  

  Verse                                                                       






----|------------|
----|------------|
----|------------|
----|------------|
----|-11--13-\---|
----|-10--12-\---|
  

  Bridge                                                                         



----|----------|
----|----------|
----|-3--------|
----|-3--------|
----|-3--------|
----|-2--------|


  Verse Pick



----|--------------------------------|
----|---6-----6------8---------------|
----|-----6------------8-------------|
----|-------6------------------------|
----|-4-----------6------------------|
----|---------------------9-9/12-\---|
 

  Bridge 2                                                            






----|--------------------------------|--|------------------|
----|--------------------------------|--|------------------|
----|--------------------------------|--|------------------|
----|--------------------------------|--|------------------|
----|--------------------------------|--|------------------|
----|-0h1-2-2-2p0-0-0-0h2-2-2-2p0-0--|--|-5--7---12\--0h2--|
  

  Chorus                                  Tremolo pick                                           

  

----|-15vv/17vvv17-15vv|
----|------------------|
----|------------------|
----|------------------|
----|------------------|
----|------------------|
  

  Chorus End                                                                         







----|-------------------------------------------------------------------|
----|-------------------------------------------------------------------|
----|-------------------------------------------------------------------|
----|-------------------------------------------------17171818----------|
----|-------------------------17br17171818191920202121--------20--------|
----|1/2-2-2-2p0-0-0-1/2-2-2-------------------------------------1/2-2--|
 

  Interlude



---------------------------------------------------------|
---------------------------------------------------------|
---------------------------------------------------------|
---------------------------------------------------------|
---------------------------------------------------------|
-2-2-2p0-0-0--2-2-2-2p0-0--1/2-2-2-2----2-2-2-2p0-0--2-\-|





----|---------------------------------------|
----|---------------------------------------|
----|---------------------------------------|
----|---------------------------------------|
----|--18b19b20r19r18/-----14----14----19b--|
----|----------------18vv----18----18-------|



--------------------|---------------------|
--------------------|---------------------|
--------------------|---------------------|
--------------------|---------------------|
--14----14-----19b--|-14----14------19b---|
-----18----18v------|----18----18v\-------|
   play 2x             play 4x




-------------------------19vvvv17vvvvvvvvvvvvvv-------------|
------------------------------------------------------------|
-----------------------------------------------17b----------|
-----------------------------------------------x-----20vvv--|
--14----14-----18bvvv--------------------------20b----------|
-----18----18v\--------------------------------21b-2--------|
                                               A


Intro/Outro

Suggest correction
comments
print report bad tab
guest
You may want to rate the tab now too:
select rating
Wanna post a correction for this tab? Suggest correction