Oops, an error
Loading. Please wait.

Fishin In The Dark bass

version 1
version 1

Whole song

Interactive

1,155 views 1 this week
2 commentsread comments
1 2 3 4 5
1 last vote to show rating
add to favorites
×
Save as Personal and add changes to this tab that will be seen only by you. Learn more ›
×
You can save this tab as Personal to edit and correct it or add notes. All changes will be seen only by you. Learn more »
launch autoscroll
font size
0
reset
guitar tuner
edit
Autoscroll
slow
fast
+/-
esc
set tempo
stop
Author
Difficulty
-------------------------------------------------------------------------------
                FISHIN' IN THE DARK - Nitty Gritty Dirt Band
-------------------------------------------------------------------------------

Tabbed by: Christopher Batson
Tuning: Standard

*The bass is only played during the choruses and outro and is otherwise silent
 during this song.

1st Chorus
  You and me...
G|--------|--------|--------|--------|--------|--------|
D|0---0---|0---0---|--0---0-|--0---0-|0---0---|0---0---|
A|--0---0-|--0---0-|--------|--------|--0---0-|--0---0-|
E|--------|--------|3---3---|3---3---|--------|--------|

G|--------|--------|--------|--------|--------|
D|--0---0-|--0---0-|2-2-----|2-2-----|0-------|
A|--------|--------|----0-0-|----0-0-|--------|
E|3---3---|3---3---|--------|--------|--------|


2nd Chorus
   You and me...
G|---------|--------|--------|--------|--------|--------|
D|-0---0---|0---0---|--0---0-|--0---0-|0---0---|0---0---|
A|---0---0-|--0---0-|--------|--------|--0---0-|--0---0-|
E|---------|--------|3---3---|3---3---|--------|--------|

G|--------|--------|--------|--------|
D|--0---0-|--0---0-|2-2-----|2-2-----|
A|--------|--------|----0-0-|----0-0-|
E|3---3---|3---3---|--------|--------|


Outro
  (repeat fading out to the end)
G|---------|--------|--------|--------|
D|-0---0---|0---0---|--0---0-|--0---0-|
A|---0---0-|--0---0-|--------|--------|
E|---------|--------|3---3---|3---3---|


**The actual bassline is as follows but it sounds better, imho, the first way.

1st Chorus
  You and me...
G|--------|--------|--------|--------|--------|--------|
D|0-0-0-0-|0-0-0-0-|--------|--------|0-0-0-0-|0-0-0-0-|
A|--------|--------|--------|--------|--------|--------|
E|--------|--------|3-3-3-3-|3-3-3-3-|--------|--------|


G|--------|--------|--------|--------|--------|
D|--------|--------|2-2-----|2-2-----|0-------|
A|--------|--------|----0-0-|----0-0-|--------|
E|3-3-3-3-|3-3-3-3-|--------|--------|--------|


2nd Chorus
   You and me...
G|---------|--------|--------|--------|--------|--------|
D|-0-0-0-0-|0-0-0-0-|--------|--------|0-0-0-0-|0-0-0-0-|
A|---------|--------|--------|--------|--------|--------|
E|---------|--------|3-3-3-3-|3-3-3-3-|--------|--------|

G|--------|--------|--------|--------|
D|--------|--------|2-2-----|2-2-----|
A|--------|--------|----0-0-|----0-0-|
E|3-3-3-3-|3-3-3-3-|--------|--------|

Outro
  (repeat fading out to the end)
G|---------|--------|--------|--------|
D|-0-0-0-0-|0-0-0-0-|--------|--------|
A|---------|--------|--------|--------|
E|---------|--------|3-3-3-3-|3-3-3-3-|

            
            
Suggest correction
Creating personal tab
Creating personal tab
You can edit any tab online and save it as your Personal.

You can edit, replace or remove any tab part or add personal notes – all changes will be seen only by you.

Personal tabs can be accessed anytime from any device, even offline.
Learn more »
Give kudos to tab author, rate the tab!
1 2 3 4 5
comments
print report bad tab
2 comments total.
+1 reply
52bass 10 Jun 06, 2016 06:27 PM

Nice TAB, thanks!

I like to combine your two "ways". For the first two Choruses, I play simple, like your "actual bassline" at the end. For the repeating outro choruses, I do the root-fifth like your first way.

Also, when it goes to E at the end of the first two choruses, I play E-B-A-E, E-B-A-E, D.

guest
You may want to rate the tab now too:
select rating
Wanna post a correction for this tab? Suggest correction