Oops, an error
Loading. Please wait.

Mr Bojangles Bass

version 1
version 1

Whole song

  • This bassline is very much simplified (hence novic... Show more

Interactive

220 views 6 this week
no commentswrite comment
1 2 3 4 5
2 more votes to show rating
add to favorites
launch autoscroll
font size
0
reset
guitar tuner
×
Best way to learn
"Mr Bojangles"
Autoscroll
slow
fast
+/-
esc
set tempo
stop
Author
Difficulty
About this tab version
This bassline is very much simplified (hence novice difficulty) but fits the song very well. Was this info helpful? Yes No
[Verse 1]

bass comes in half way through Verse 1 at "He jumped so high"

G|-------------------------------------------------------------------------|
D|-------------------------------------------------------------------------|
A|---------------------4-5-6---6---------------------------------------6-8-|
E|-7---7-7---7-6---6-6-----------9---9-8---8-7---7-9---9-9---9-9---9-9-----|


[Verse 2]

G|-------------------------------------------------|
D|-------------------------------------------------|
A|-9---9-8---8-6---6---------------------------6-8-|
E|-------------------9---9-7---7-7---7-9---9-9-----|

G|-------------------------------------------------|
D|-------------------------------------------------|
A|-9---9-8---8-6---6-------------------------------|
E|-------------------9---9-7---7-7---7-9---9-9---9-|

G|-------------------------------------------------------------------------|
D|-------------------------------------------------------------------------|
A|---------------------4-5-6---6---------------------------------------6-8-|
E|-7---7-7---7-6---6-6-----------9---9-8---8-7---7-9---9-9---9-9---9-9-----|


[Verse 3]

G|-------------------------------------------------|
D|-------------------------------------------------|
A|-9---9-8---8-6---6---------------------------6-8-|
E|-------------------9---9-7---7-7---7-9---9-9-----|

G|-------------------------------------------------|
D|-------------------------------------------------|
A|-9---9-8---8-6---6-------------------------------|
E|-------------------9---9-7---7-7---7-9---9-9---9-|

G|-------------------------------------------------------------------------|
D|-------------------------------------------------------------------------|
A|---------------------4-5-6---6-------------------------------------------|
E|-7---7-7---7-6---6-6-----------9---9-8---8-7---7-9---9-9---9-9---9-9---9-|


[Chorus]

G|-------------------------------------------------|
D|-------------------------------------------------|
A|-6-----------4-----------6-----------4-----------|
E|-------------------------------------------------|

G|-------------------------------------------------|
D|-------------------------------------------------|
A|-6-----------4-----4-6-8-9---9-8---8-6---6---6-8-|
E|-------------------------------------------9-----|


[Verse 4]

G|-------------------------------------------------|
D|-------------------------------------------------|
A|-9---9-8---8-6---6---------------------------6-8-|
E|-------------------9---9-7---7-7---7-9---9-9-----|

G|-------------------------------------------------|
D|-------------------------------------------------|
A|-9---9-8---8-6---6-------------------------------|
E|-------------------9---9-7---7-7---7-9---9-9---9-|

G|-------------------------------------------------------------------------|
D|-------------------------------------------------------------------------|
A|---------------------4-5-6---6---------------------------------------6-8-|
E|-7---7-7---7-6---6-6-----------9---9-8---8-7---7-9---9-9---9-9---9-9-----|


[Verse 5]

G|-------------------------------------------------|
D|-------------------------------------------------|
A|-9---9-8---8-6---6---------------------------6-8-|
E|-------------------9---9-7---7-7---7-9---9-9-----|

G|-------------------------------------------------|
D|-------------------------------------------------|
A|-9---9-8---8-6---6-------------------------------|
E|-------------------9---9-7---7-7---7-9---9-9---9-|

G|-------------------------------------------------------------------------|
D|-------------------------------------------------------------------------|
A|---------------------4-5-6---6-------------------------------------------|
E|-7---7-7---7-6---6-6-----------9---9-8---8-7---7-9---9-9---9-9---9-9---9-|


[Chorus]

G|-------------------------------------------------|
D|-------------------------------------------------|
A|-6-----------4-----------6-----------4-----------|
E|-------------------------------------------------|

G|-------------------------------------------------------------------------|
D|-------------------------------------------------------------------------|
A|-6-----------4-----4-6-8-9---9-8---8-6---6---6-8-9-----------------------|
E|-------------------------------------------9-----------------------------|
Suggest correction
Give kudos to tab author, rate the tab!
1 2 3 4 5
comments
print report bad tab
guest
You may want to rate the tab now too:
select rating
Wanna post a correction for this tab? Suggest correction