Oops, an error
Loading. Please wait.

Jcb Song tab

version 3
version 3

Whole song

Interactive

by Nizlopi
4,286 views 9 this week
no commentswrite comment
1 2 3 4 5
x 4
add to favorites
×
Save as Personal and add changes to this tab that will be seen only by you. Learn more ›
×
You can save this tab as Personal to edit and correct it or add notes. All changes will be seen only by you. Learn more »
launch autoscroll
font size
0
reset
how to read this tab
guitar tuner
edit
Autoscroll
slow
fast
+/-
esc
set tempo
stop
Song: JCB Song
Artist: Nizlopi
Album: Half These Song's Are About You

Tabbed By: Nicholas Yetman
-This is my first tab, please rate !

Capo 2nd

Intro:
e||----0---3-0----------0---3-0---0------0---3-0----------0~----------||
B||------3-------3--------3-----3----------3-------3------------------||
G||--0---------0------0----------------0---------0------0-------------||
D||-------------------------------------------------------------------||
A||3---------------------------------3--------------------------------||
E||-----------------3---------------------------------3---------------||


Verse 1:
Well I'm rumbling in this Jcb, I'm 5 years old and my dad is a giant sitting beside me.
e||----0---3-0----------0---3-0---0------0---3-0----------0---3-0---0-||
B||------3-------3--------3-----3----------3-------3--------3-----3---||
G||--0---------0------0----------------0---------0------0-------------||
D||-------------------------------------------------------------------||
A||3---------------------------------3--------------------------------||
E||-----------------3---------------------------------3---------------||

And the engine rattles my bum like bazzerk, While were singing, Don't forget your shovel 
you want to go to work.
e||---------------------------------||
B||----1---3-1---1------1---3-1---1-||
G||------0-----0------0---0-----0---||
D||--3------------------------------||       x2
A||---------------------------------||
E||1----------------3---------------||

And my dad's probably had a bloody hard day, But he's been good fun and bubblin' and 
away.
e||----0---3-0----------0---3-0---0------0---3-0----------0---3-0---0-||
B||------3-------3--------3-----3----------3-------3--------3-----3---||
G||--0---------0------0----------------0---------0------0-------------||
D||-------------------------------------------------------------------||
A||3---------------------------------3--------------------------------||
E||-----------------3---------------------------------3---------------||

And the procession of cars stuck behind, Are getting more impatient and angry but we 
mind.
e||---------------------------------||
B||----1---3-1---1------1---3-1---1-||
G||------0-----0------0---0-----0---||
D||--3------------------------------||       x2
A||---------------------------------||
E||1----------------3---------------||

Chorus:
And were holding up the bypass (ohh), Me and my dad havin' a top laugh (oh-woah), And 
sitting on the tool box (ohh), And i'm so glad i'm not in school boss, So glad im not in school.
e||---------------------------------||
B||----1---3-1---1------1---3-1---1-||
G||------0-----0------0---0-----0---||
D||--3------------------------------||       x4
A||---------------------------------||
E||1----------------3---------------||

INTRO: x1

Verse 2:
And we pull over to let the cars pass, And pull off again speeding by this summer green grass,
e||----0---3-0----------0---3-0---0------0---3-0----------0---3-0---0-||
B||------3-------3--------3-----3----------3-------3--------3-----3---||
G||--0---------0------0----------------0---------0------0-------------||
D||-------------------------------------------------------------------||
A||3---------------------------------3--------------------------------||
E||-----------------3---------------------------------3---------------||

And were like giants up here in our big yellow digger, Like zoids or transformers or 
even bigger.
e||---------------------------------||
B||----1---3-1---1------1---3-1---1-||
G||------0-----0------0---0-----0---||
D||--3------------------------------||       x2
A||---------------------------------||
E||1----------------3---------------||

I wanna' transform into a Tyrannosaurus Rex, And eat up all the bullies and the teachers 
their pets.
e||----0---3-0----------0---3-0---0------0---3-0----------0---3-0---0-||
B||------3-------3--------3-----3----------3-------3--------3-----3---||
G||--0---------0------0----------------0---------0------0-------------||
D||-------------------------------------------------------------------||
A||3---------------------------------3--------------------------------||
E||-----------------3---------------------------------3---------------||

And I'll tell all my mates, My dad's B.A.Baracus, Only with a JCB, and Bruce Lee's numchuckers.


CHORUS: x2

Outro:
(Just these Lyrics, no music)
Said i'm Luke i'm 5 and my dad's Bruce Lee, Drives me around in his JCB.
I'm Luke i'm 5 and my dad's Bruce Lee, Drives me around in his JCB.

Chord Diagram
(Not exactly sure of chord name's, so i'll number them.)
     #1          #2          #3
e||--0-----------0-----------0----------------------------------------||
B||--1-----------1-----------3----------------------------------------||
G||--0-----------0-----------0----------------------------------------||
D||--3-----------0-----------x----------------------------------------||
A||--x-----------2-----------3----------------------------------------||
E||--1-----------3----------------------------------------------------||

#1
I'm Luke I'm 5 and my dad's Bruce Lee,
#2
Drives me around in his JCB,
#1
I'm Luke I'm 5 and my dad's Bruce Lee,
#2                                        #1        #2
Drives me around- And were holding up the Bypass (ohh)
                       #1           #2
Me and my dad havin' a top laugh (oh-woah)
                       #1          #2
And i'm sitting on the tool box (ohh)
                           #1                              #2
And i'm so glad i'm not in school boss, So glad i'm not in school, Oh no,
#1
Said i'm Luke I'm 5 and my dad's Bruce Lee,
#2
Drives me around in his JCB,
#1
I'm Luke I'm 5 and my dad's Bruce Lee,
#2
Drives me around in his JCB,
#1
Said i'm Luke I'm 5 and my dad's Bruce Lee,
#2
Drives me around in his JCB,
#1
I'm Luke I'm 5 and my dad's Bruce Lee,
#2                       #3 (Slowly down strum)
Drives me around in his JCB


                              - The End-

                                               Thank You !

            
            
Suggest correction
Creating personal tab
Creating personal tab
You can edit any tab online and save it as your Personal.

You can edit, replace or remove any tab part or add personal notes – all changes will be seen only by you.

Personal tabs can be accessed anytime from any device, even offline.
Learn more »
comments
print report bad tab
guest
You may want to rate the tab now too:
select rating
Wanna post a correction for this tab? Suggest correction