Oops, an error
Loading. Please wait.

Jcb Song tab

version 4
version 4

Whole song

Interactive

by Nizlopi
70,563 views 48 this week
14 commentsread comments
1 2 3 4 5
x 15
add to favorites
×
Save as Personal and add changes to this tab that will be seen only by you. Learn more ›
×
You can save this tab as Personal to edit and correct it or add notes. All changes will be seen only by you. Learn more »
launch autoscroll
font size
0
reset
how to read this tab
guitar tuner
edit
Autoscroll
slow
fast
+/-
esc
set tempo
stop
Author
JCB Song
--------

what a simple and great song!    

 n.c. (no chord)
    G (32003x)
Asus4 (x0223x)
    D (xx0232)


[Intro]
          (D)                (Asus4)            (D)                (Asus4)
        e|-----2---5--2-----|-----2---5--2---2-|-----2---5--2-----|-----2-|
        b|-------5--------5-|-------5------5---|-------5--------5-|---5---|
        g|---2----------2---|---2--------------|---2----------2---|-------|
        d|-0----------------|------------------|-0----------------|-------|
        a|------------------|-0----------------|------------------|-0-----|
        E|------------------|------------------|------------------|-------|

[Verse 1]
          (D)                (Asus4)
        e|-----2---5--2-----|-----2---5--2---2-|
        b|-------5--------5-|-------5------5---|
        g|---2----------2---|---2--------------|
        d|-0----------------|------------------|
        a|------------------|-0----------------|
        E|------------------|------------------|

          well i'm rumbling in this JCB.


          (D)                (Asus4)
        e|-----2---5--2-----|-----2---5--2---2-|
        b|-------5--------5-|-------5------5---|
        g|---2----------2---|---2--------------|
        d|-0----------------|------------------|
        a|------------------|-0----------------|
        E|------------------|------------------|
        
         i'm five years old and my dads a giant sitting beside me and the


          (G)               (Asus4)     
        e|---------0-------|---------0-------|
        b|-----3-----3---3-|-----3-----3---3-|
        g|---0---0-----0---|-------2-----2---|
        d|-----------------|---2-------------|
        a|-----------------|-0---------------|
        E|-3---------------|-----------------|
        
         engine rattles my bum like berserk, while we're singing:


          (G)               (Asus4)
        e|---------0-------|---------0-------|
        b|-----3-----3---3-|-----3-----3---3-|
        g|---0---0-----0---|-------2-----2---|
        d|-----------------|---2-------------|
        a|-----------------|-0---------------|
        E|-3---------------|-----------------|
        
         'don't forget your shovel if you want to go to work.' my dads


[Verse 2]
          (D)                (Asus4)
        e|-----2---5--2-----|-----2---5--2---2-|
        b|-------5--------5-|-------5------5---|
        g|---2----------2---|---2--------------|
        d|-0----------------|------------------|
        a|------------------|-0----------------|
        E|------------------|------------------|

          probably had a bloody hard day, but he's been
 

          (D)                (Asus4)
        e|-----2---5--2-----|-----2---5--2---2-|
        b|-------5--------5-|-------5------5---|
        g|---2----------2---|---2--------------|
        d|-0----------------|------------------|
        a|------------------|-0----------------|
        E|------------------|------------------|
        
         good fun and bubbling and joking away and the


          (G)               (Asus4)     
        e|---------0-------|---------0-------|
        b|-----3-----3---3-|-----3-----3---3-|
        g|---0---0-----0---|-------2-----2---|
        d|-----------------|---2-------------|
        a|-----------------|-0---------------|
        E|-3---------------|-----------------|
        
         precession of cars stuck behind are getting


          (G)               (Asus4)
        e|---------0-------|---------0-|
        b|-----3-----3---3-|-----3-----|
        g|---0---0-----0---|-------2---|
        d|-----------------|---2-------|
        a|-----------------|-0---------|
        E|-3---------------|-----------|
        
         all impatient and angry but we don't mind


[Chorus 1]
          (G)               (Asus4)
        e|---------0-------|---------0-------|
        b|-----3-----3---3-|-----3-----3---3-|
        g|---0---0-----0---|-------2-----2---|
        d|-----------------|---2-------------|
        a|-----------------|-0---------------|
        E|-3---------------|-----------------|

         and we're holding up the bypass, me and my dad having


          (G)               (Asus4)
        e|---------0-------|---------0-------|
        b|-----3-----3---3-|-----3-----3---3-|
        g|---0---0-----0---|-------2-----2---|
        d|-----------------|---2-------------|
        a|-----------------|-0---------------|
        E|-3---------------|-----------------|
        
         top laughs, ah-woah. i'm sitting on the


          (G)               (Asus4)
        e|---------0-------|---------0-------|
        b|-----3-----3---3-|-----3-----3---3-|
        g|---0---0-----0---|-------2-----2---|
        d|-----------------|---2-------------|
        a|-----------------|-0---------------|
        E|-3---------------|-----------------|
        
         toolbox, and i'm so glad i'm not in


          (G)               (Asus4)
        e|---------0-------|---------|
        b|-----3-----3---3-|-----3---|
        g|---0---0-----0---|-------2-|
        d|-----------------|---2-----|
        a|-----------------|-0-------|
        E|-3---------------|---------|
        
         school boss, so glad i'm not in school. oh no


[Solo]
          (D)                (Asus4)            (D)
        e|-----2---5--2-----|-----2---5--2---2-|-----2---5--2-----|
        b|-------5--------5-|-------5------5---|-------5--------5-|
        g|---2----------2---|---2--------------|---2----------2---|
        d|-0----------------|------------------|-0----------------|
        a|------------------|-0----------------|------------------|
        E|------------------|------------------|------------------|


[Verse 3]
          (D)                (Asus4)
        e|-----2---5--2-----|-----2---5--2---2-|
        b|-------5--------5-|-------5------5---|
        g|---2----------2---|---2--------------|
        d|-0----------------|------------------|
        a|------------------|-0----------------|
        E|------------------|------------------|

          and we pull over to let cars pass, and pull
 

          (D)                (Asus4)
        e|-----2---5--2-----|-----2---5--2---2-|
        b|-------5--------5-|-------5------5---|
        g|---2----------2---|---2--------------|
        d|-0----------------|------------------|
        a|------------------|-0----------------|
        E|------------------|------------------|
        
         off again speeding by this summer green grass and we're like


          (G)               (Asus4)     
        e|---------0-------|---------0-------|
        b|-----3-----3---3-|-----3-----3---3-|
        g|---0---0-----0---|-------2-----2---|
        d|-----------------|---2-------------|
        a|-----------------|-0---------------|
        E|-3---------------|-----------------|
        
         giants up here in our big yellow digger, like


          (G)               (Asus4)
        e|---------0-------|---------0-------|
        b|-----3-----3---3-|-----3-----3---3-|
        g|---0---0-----0---|-------2-----2---|
        d|-----------------|---2-------------|
        a|-----------------|-0---------------|
        E|-3---------------|-----------------|
        
         zoids or transformers or maybe even bigger. and i wanna


[Verse 4]
          (D)                (Asus4)
        e|-----2---5--2-----|-----2---5--2---2-|
        b|-------5--------5-|-------5------5---|
        g|---2----------2---|---2--------------|
        d|-0----------------|------------------|
        a|------------------|-0----------------|
        E|------------------|------------------|

          transform into a tyrannasaurus rex and 
 

          (D)                (Asus4)
        e|-----2---5--2-----|-----2---5--2---2-|
        b|-------5--------5-|-------5------5---|
        g|---2----------2---|---2--------------|
        d|-0----------------|------------------|
        a|------------------|-0----------------|
        E|------------------|------------------|
        
         and eat up all the bullies and the teachers and their pets and i'll


          (G)               (Asus4)     
        e|---------0-------|---------0-------|
        b|-----3-----3---3-|-----3-----3---3-|
        g|---0---0-----0---|-------2-----2---|
        d|-----------------|---2-------------|
        a|-----------------|-0---------------|
        E|-3---------------|-----------------|
        
         tell all my mates my dad's B.A. Barracus, only with a


          (G)               (Asus4)
        e|---------0-------|-------|
        b|-----3-----3---3-|-----3-|
        g|---0---0-----0---|-------|
        d|-----------------|---2---|
        a|-----------------|-0-----|
        E|-3---------------|-------|
        
         JCB and bruce lee's nun-chuckas


[Chorus 2]
          (G)               (Asus4)
        e|---------0-------|---------0-------|
        b|-----3-----3---3-|-----3-----3---3-|
        g|---0---0-----0---|-------2-----2---|
        d|-----------------|---2-------------|
        a|-----------------|-0---------------|
        E|-3---------------|-----------------|

         and we're holding up the bypass, me and my dad having


          (G)               (Asus4)
        e|---------0-------|---------0-------|
        b|-----3-----3---3-|-----3-----3---3-|
        g|---0---0-----0---|-------2-----2---|
        d|-----------------|---2-------------|
        a|-----------------|-0---------------|
        E|-3---------------|-----------------|
        
         a top laugh, oh-woah. i'm sitting on the


          (G)               (Asus4)
        e|---------0-------|---------0-------|
        b|-----3-----3---3-|-----3-----3---3-|
        g|---0---0-----0---|-------2-----2---|
        d|-----------------|---2-------------|
        a|-----------------|-0---------------|
        E|-3---------------|-----------------|
        
         toolbox oh-oh, and i'm so glad i'm not in


          (G)               (Asus4)
        e|---------0-------|---------0------|
        b|-----3-----3---3-|-----3-----3---3|
        g|---0---0-----0---|-------2-----2--|
        d|-----------------|---2------------|
        a|-----------------|-0--------------|
        E|-3---------------|----------------|
        
         school boss, so glad i'm not in school.


[Chorus 3]
          (G)               (Asus4)
        e|---------0-------|---------0-------|
        b|-----3-----3---3-|-----3-----3---3-|
        g|---0---0-----0---|-------2-----2---|
        d|-----------------|---2-------------|
        a|-----------------|-0---------------|
        E|-3---------------|-----------------|

         and we're holding up the bypass oh oh, me and my dad having


          (G)               (Asus4)
        e|---------0-------|---------0-------|
        b|-----3-----3---3-|-----3-----3---3-|
        g|---0---0-----0---|-------2-----2---|
        d|-----------------|---2-------------|
        a|-----------------|-0---------------|
        E|-3---------------|-----------------|
        
         a top laugh, oh-woah. i'm sitting on the


          (G)               (Asus4)
        e|---------0-------|---------0-------|
        b|-----3-----3---3-|-----3-----3---3-|
        g|---0---0-----0---|-------2-----2---|
        d|-----------------|---2-------------|
        a|-----------------|-0---------------|
        E|-3---------------|-----------------|
        
         toolbox oh-oh, and i'm so glad i'm not in


          (G)               (Asus4)
        e|---------0-------|-------------------|
        b|-----3-----3---3-|-----3-----3-------|
        g|---0---0-----0---|-------2-----------|
        d|-----------------|---2---------------|
        a|-----------------|-0-------0---4/5\4-|
        E|-3---------------|-------------------|
        
         school boss, so glad i'm not in school.

[Outro]
        n.c.
        said i'm luke, i'm five and my dad's bruce lee
        
        drives me round in his JCB
        
        i'm luke, i'm five and my dad's bruce lee
        
        drives me round in his JCB
             G
        i'm luke, i'm five and my dad's bruce lee
         Asus4
        drives me round in his JCB
             G
        i'm luke, i'm five and my dad's bruce lee
         Asus4                                     G       Asus4
        drives me round and we're holding up the by-pass woah
                               G             Asus4
        me and my dad having a top laugh oh-woah
                               G          Asus4
        and i'm sitting on the toolbox oh-oh
                                   G                                 Asus4 
        and i'm so glad i'm not in school boss, so glad i'm not in school
                     G
        oh said i'm luke, i'm five and my dad's bruce lee
         Asus4
        drives me round in his JCB
             G
        i'm luke, i'm five and my dad's bruce lee
         Asus4
        drives me round in his, ah
             G
        i'm luke, i'm five and my dad's bruce lee
         Asus4
        drives me round in his JCB
             G
        i'm luke, i'm five and my dad's bruce lee
         Asus4                    D
        drives me round in his JCB



************************************

| /  Slide up
| \  Slide down

************************************

            
            
Suggest correction
Creating personal tab
Creating personal tab
You can edit any tab online and save it as your Personal.

You can edit, replace or remove any tab part or add personal notes – all changes will be seen only by you.

Personal tabs can be accessed anytime from any device, even offline.
Learn more »
comments
print report bad tab
14 comments total. Showing first comments.
+1 reply
J_Dizzell 30 Jan 30, 2006 05:21 AM

Sounds pretty damn good to me. Nice tab

+1 reply
daz320 10 Aug 29, 2006 01:53 PM

great tab, great song, thanks

+1 reply
Red87 10 Sep 25, 2006 08:00 AM

Best of the lot

guest
You may want to rate the tab now too:
select rating
Wanna post a correction for this tab? Suggest correction