Oops, an error
Loading. Please wait.

Homelife Is A Drag bass

by No-Cash
1,865 views 1 this week
2 commentsread comments
1 2 3 4 5
1 last vote to show rating
add to favorites
×
Save as Personal and add changes to this tab that will be seen only by you. Learn more ›
×
You can save this tab as Personal to edit and correct it or add notes. All changes will be seen only by you. Learn more »
launch autoscroll
font size
0
reset
guitar tuner
edit
Autoscroll
slow
fast
+/-
esc
set tempo
stop
Author
Difficulty
Artist: No Cash 
Song: Homelife is a Drag
Album: Run Your Pockets
tabbed by: gvulturexx

Intro/Main Riff

G|--------------------------------------------------------9-----------------|
D|-----------------------------------------------------7-----7--5\3--5--3--2|
A|--3---3-3/5---3-------------0--1--2--3---3--3/5---3-----------------------|
E|-----------------5----3--1------------------------------------------------|

Other Riff
G|----------------------|
D|----------------------|
A|-3333-5555------------|
E|-----------5555-1111--|



            
            
Suggest correction
Creating personal tab
Creating personal tab
You can edit any tab online and save it as your Personal.

You can edit, replace or remove any tab part or add personal notes – all changes will be seen only by you.

Personal tabs can be accessed anytime from any device, even offline.
Learn more »
Give kudos to tab author, rate the tab!
1 2 3 4 5
comments
print report bad tab
2 comments total.
0 reply
kcolemansucks 162 May 19, 2016 07:44 PM, edited on May 25 2016, 01:24 am

For the main riff it's more like this
G|--------------------------------------------------------9--------------|D|-----------------------------------------------------7-----7--5\3--5--3|A|--3---3-3/5---3-------------0--1--2--3---3--3/5---3--------------------|E|-----------------5----3--1---------------------------------------------|

0 reply
kcolemansucks 162 May 24, 2016 09:27 PM

For the main riff it's more like this

G|--------------------------------------------------------9-----------------|
D|-----------------------------------------------------7-----7--5\3--5--3--2|
A|--3---3-3/5---3-------------0--1--2--3---3--3/5---3-----------------------|
E|-----------------5----3--1------------------------------------------------|

guest
You may want to rate the tab now too:
select rating
Wanna post a correction for this tab? Suggest correction