Oops, an error
Loading. Please wait.

Kill Your Parents tab

by No-Cash
2,150 views 3 this week
1 commentread comment
1 2 3 4 5
1 last vote to show rating
add to favorites
×
Save as Personal and add changes to this tab that will be seen only by you. Learn more ›
×
You can save this tab as Personal to edit and correct it or add notes. All changes will be seen only by you. Learn more »
launch autoscroll
font size
0
reset
how to read this tab
guitar tuner
edit
Autoscroll
slow
fast
+/-
esc
set tempo
stop
e|--------------------------------|--------------------------------|
B|--------------------------------|--------------------------------|
G|--------------------------------|--------------------------------|
D|--------------------------------|------------5-4-2---------------|
A|----2--3--2-----2-3-5-3-2-------|----2--3--2-------5-4-2---------|
E|0-3---------0-3-----------------|0-3---------------------5-3-----|

e|--------------------------------|--------------------------------|
B|--------------------------------|--------------------------------|
G|--------------------------------|--------------------------------|
D|--------------------------------|------------5-4-2------------2--|
A|----2--3--2-----2-3-5-3-2-------|----2--3--2-------5-4-2------2--|
E|0-3---------0-3-----------------|0-3---------------------5-3--0--|

e|----------------|
B|----------------|
G|----------------|
D|5-4-2---------2-|
A|-----5-4-2----2-|
E|----------5-3-0-|
 (       x3     )
e|----------------|
B|----------------|
G|----------------|
D|5-4-2----------2|
A|-----5-4-2-----2|
E|----------5-3--0|

               figuar out the rhythem urself
                               (     2x       )
e|---------------------------|----------------------|
B|---------------------------|----------------------|
G|---5-----7-----5-----7-----|-9-/-5-/-12-/-7-------|
D|2--5--5--7--2--5--5--x-----|-x-/-x-/--x-/-x-------|
A|2--3--5--5--2--3--5--5-----|-7-/-3-/-10-/-5-------|
E|0-----3-----0-----3--------|----------------------|

   " not to sure bout the ska part "
     figuar out rhythem urself 
e|12-x-11-x-12-x-15----|
B|12-x-11-x-12-x-15----|
G|12-x-11-x-12-x-15----|
D|---------------------| 
A|---------------------|
E|---------------------|


e|---------------------------|----------------------|
B|---------------------------|----------------------|
G|---5-----7-----5-----7-----|-9-/-5-/-12-/-7-------|
D|2--5--5--7--2--5--5--x-----|-x-/-x-/--x-/-x-------|
A|2--3--5--5--2--3--5--5-----|-7-/-3-/-10-/-5-------|
E|0-----3-----0-----3--------|----------------------|


e|12-x-11-x-12-x-15----|
B|12-x-11-x-12-x-15----|
G|12-x-11-x-12-x-15----|
D|---------------------| 
A|---------------------|
E|---------------------|


e|---------------------------|----------------------|
B|---------------------------|----------------------|
G|---5-----7-----5-----7-----|-9-/-5-/-12-/-7-------|
D|2--5--5--7--2--5--5--x-----|-x-/-x-/--x-/-x-------|
A|2--3--5--5--2--3--5--5-----|-7-/-3-/-10-/-5-------|
E|0-----3-----0-----3--------|----------------------|

e|--------------------------------|--------------------------------|
B|--------------------------------|--------------------------------|
G|--------------------------------|--------------------------------|
D|--------------------------------|------------5-4-2---------------|
A|----2--3--2-----2-3-5-3-2-------|----2--3--2-------5-4-2---------|
E|0-3---------0-3-----------------|0-3---------------------5-3-----|

e|---------------------------|----------------------|
B|---------------------------|----------------------|
G|---5-----7-----5-----7-----|-9-/-5-/-12-/-7-------|
D|2--5--5--7--2--5--5--x-----|-x-/-x-/--x-/-x-------|
A|2--3--5--5--2--3--5--5-----|-7-/-3-/-10-/-5-------|
E|0-----3-----0-----3--------|----------------------|

e|12-x-11-x-12-x-15----|
B|12-x-11-x-12-x-15----|
G|12-x-11-x-12-x-15----|
D|---------------------| 
A|---------------------|
E|---------------------|

e|---------------------------|----------------------|
B|---------------------------|----------------------|
G|---5-----7-----5-----7-----|-9-/-5-/-12-/-7--9~---|
D|2--5--5--7--2--5--5--x-----|-x-/-x-/--x-/-x--x----|
A|2--3--5--5--2--3--5--5-----|-7-/-3-/-10-/-5--7~---|
E|0-----3-----0-----3--------|----------------------|
 
    outro"not 100% right i think"
e|---------------------------------------------|
B|---12--10--8---------------------------------|
G|-9-----------5-5-5--7--8--8--7--5--7--4444--9|
D|---------------------------------------------| 
A|---------------------------------------------|
E|---------------------------------------------|

e|----------------------------------------------|
B|---12--10--8----------------------------------|
G|-9-----------5-5-5--7--8--8--7--5--7--4444--9~|
D|----------------------------------------------| 
A|----------------------------------------------|
E|----------------------------------------------|

something like that ...play arond with the tabs 

Kill Ur Parents



            
            
Suggest correction
Creating personal tab
Creating personal tab
You can edit any tab online and save it as your Personal.

You can edit, replace or remove any tab part or add personal notes – all changes will be seen only by you.

Personal tabs can be accessed anytime from any device, even offline.
Learn more »
Give kudos to tab author, rate the tab!
1 2 3 4 5
comments
print report bad tab
1 comment total.
0 reply
dustin_grey 30 Jul 07, 2008 08:26 PM

For the outro:

e--------------------------------------------------------------------
B----12-10-8-------7-8-8-7------------------12-10-8-------7-8-8-7----
G--9---------5-5-9---------9-7-4--4--4-4-4-4/9---------5-5-9---------
D--------------------------------------------------------------------
A--------------------------------------------------------------------
E--------------------------------------------------------------------

e--------------------------------------------------------------------
B--------------------------------------------------------------------
G--9-7-4--4--4-4-4-4/9-----------------------------------------------
D--------------------------------------------------------------------
A--------------------------------------------------------------------
E--------------------------------------------------------------------

guest
Wanna post a correction for this tab? Suggest correction