Oops, an error
Loading. Please wait.

Pierce The Gates bass

version 2
version 2

Whole song

by No-Cash
524 views 1 this week
1 commentread comment
1 2 3 4 5
2 more votes to show rating
add to favorites
×
Save as Personal and add changes to this tab that will be seen only by you. Learn more ›
×
You can save this tab as Personal to edit and correct it or add notes. All changes will be seen only by you. Learn more »
launch autoscroll
font size
0
reset
guitar tuner
edit
Autoscroll
slow
fast
+/-
esc
set tempo
stop
No-Cash
Pierce the Gates
Bass tab

Intro
G|----------------------------------------------------------------------------|
D|----------------------------------------------------------------------------|
A|----------------------------------------------------------------------------|
E|-5~(let ring)---5-(rest)-----1~-----0~-----5~-------------------------------|

Main riff (verses)
G|----------------------------------------------------------------------------|
D|----------2-----------------2--------------------------------------5-6------|
A|-0--5-3-0----3-5---0--5-3-0----3-5------5-3-0----2-3-2-0--5-3-0--7----------|
E|-----------------0-----------------0--1-------0------------------------0----|

Chorus and "burn a church" part
G|----------------------------------------------------------------------------|
D|----------------------------------------------------------------------------|
A|-----3-3-5-5---------3-3-5-5---------3-3-5-5---------3-3-5-5----------------|
E|-5-5---------0-0-5-5---------0-0-5-5---------0-0-5-5---------0-0-5~let ring-|

Breakdown
G|-----------------------------|
D|-----------------------------|
A|-------------3~--2~--2-3-2---| repeat
E|-5~-----0--1---------------3-|

End of breakdown:
G|-----------------------------|
D|-------------------5-6-------|
A|-------------3~--7-----------|
E|-5~-----0--1-----------0-----|
(back to chorus from there)


Should be mostly correct.  I'm pretty confident about it, but the bass is hard to hear 
this album sometimes.

            
            
Suggest correction
Creating personal tab
Creating personal tab
You can edit any tab online and save it as your Personal.

You can edit, replace or remove any tab part or add personal notes – all changes will be seen only by you.

Personal tabs can be accessed anytime from any device, even offline.
Learn more »
Give kudos to tab author, rate the tab!
1 2 3 4 5
comments
print report bad tab
1 comment total.
0 reply
Tretch 10 Feb 25, 2009 09:44 PM

seems to be alot more correct then the other one

guest
You may want to rate the tab now too:
select rating
Wanna post a correction for this tab? Suggest correction