Oops, an error
Loading. Please wait.

When Im Gone tab

version 1
version 1

Whole song

804 views 1 this week
1 commentread comment
1 2 3 4 5
1 last vote to show rating
add to favorites
×
Save as Personal and add changes to this tab that will be seen only by you. Learn more ›
×
You can save this tab as Personal to edit and correct it or add notes. All changes will be seen only by you. Learn more »
launch autoscroll
font size
0
reset
how to read this tab
guitar tuner
edit
Autoscroll
slow
fast
+/-
esc
set tempo
stop
Author
Difficulty
-------------------------------------------------------------------------------
                             When I'm Gone - No Address
-------------------------------------------------------------------------------
Tabbed by:Im2dumb4u8
Email:Billwjo@gmail.com

Tuning:Standard

Intro
e|-----------------------------------------------------------------|
B|-----------------------------------------------------------------|
G|---9--9--9--9--------------------7--7--7--7----------------------|
D|---9--9--9--9-----9--9--9--9-----7--7--7--7-----5--5-----7--7----|
A|---7--7--7--7-----9--9--9--9-----5--5--5--5-----5--5-----7--7----|
E|------------------7--7--7--7--------------------3--3-----5--5----|
     .  .           .  .           .  .

Verse 1 - bass
G|-----------------------------------------------------------------|
D|-----------------------------------------------------------------|
A|---7--7--7--7---------------------5--5--5--5---------------------|
E|------------------7--7--7--7---------------------3--3-----5--5---|

Verse 2 - guitar
e|----------------------------------------------------------|
B|----------------------------------------------------------|
G|----9--9----------7--7-----------9--9----------7--7-------|
D|----9--9---9--9---7--7---5--7----9--9---9--9---7--7--2----|
A|----7--7---9--9---5--5---5--7----7--7---9--9---5--5--2----|
E|-----------7--7----------3--5-----------7--7---------0----|

Chorus
e|-------------------------------|
B|-------------------------------|
G|----9-------------7------------|
D|----9-x4---9------7-x4--5/7----|
A|----7------9-x4---5-----5/7----|
E|-----------7------------3/5----|

Bridge
e|-------------------------------------------------------|
B|-------------------------------------------------------|
G|----5-----------------------------------5--------------|
D|----5-x16---7-----x-x--7-7--x-x--7-7----5-x16---9------|
A|----3-------7-x8--x-x--7-7--x-x--7-7----3-------9-x16--|
E|------------5-----x-x--5-5--x-x--5-5------------7------|

Solo - untabbable random noises played ontop of the same intro sequence

| /  slide up
| \  slide down
| h  hammer-on
| p  pull-off
| ~  vibrato
| +  harmonic
| x  Mute note
===============================================================================

            
            
Suggest correction
Creating personal tab
Creating personal tab
You can edit any tab online and save it as your Personal.

You can edit, replace or remove any tab part or add personal notes – all changes will be seen only by you.

Personal tabs can be accessed anytime from any device, even offline.
Learn more »
Give kudos to tab author, rate the tab!
1 2 3 4 5
comments
print report bad tab
1 comment total.
0 reply
hooker72005 10 Mar 27, 2007 10:31 AM

There seems to be quite a bit missing, especially in the pre-chorus.

guest
You may want to rate the tab now too:
select rating
Wanna post a correction for this tab? Suggest correction