Oops, an error
Loading. Please wait.

Sleeper Hold tab

by No Age
1,926 views 3 this week
1 commentread comment
1 2 3 4 5
2 more votes to show rating
add to favorites
×
Save as Personal and add changes to this tab that will be seen only by you. Learn more ›
×
You can save this tab as Personal to edit and correct it or add notes. All changes will be seen only by you. Learn more »
launch autoscroll
font size
0
reset
how to read this tab
guitar tuner
edit
Autoscroll
slow
fast
+/-
esc
set tempo
stop
Author
Difficulty
So, I just learned this by ear. I don't know how right it is, because the guitar's kind 
of sloppy and buried under noise, so corrections are welcome.

Intro (on tenth fret):
D6 D D6 D D6 then  e--10---------------|
                   a--12---------------|
                   d--12---------------|
                   g--11---------------|
                   b--10---------------|
                   e--12---------------|
Alternate that with a D6. Trust me, listen along and it'll make sense.

Verse:
B               c#m     E
With passion he choose, why don't you scream
B                 c#m E A              B
With passion it's cold, and nice to try
B               c#m    E
With passion he choose the one he's like
B            c#m  E
With passion he's ruined

Interlude
E-------------------------------|
A-------------------------------|
D-7---9-------------------------|
G------ 9 - 7- 9----------------|
B-------- 7---------------------|
E-------------------------------|

B                 c#m E
With passion it's true and what's his name?
D      E  B
Inside home
D             E   B
I don't wanna take a ride home
D           E      B
I shouldn't make a bright one

The song is a lot of repetition, so you can figure out the rest.

            
            
Suggest correction
Creating personal tab
Creating personal tab
You can edit any tab online and save it as your Personal.

You can edit, replace or remove any tab part or add personal notes – all changes will be seen only by you.

Personal tabs can be accessed anytime from any device, even offline.
Learn more »
Give kudos to tab author, rate the tab!
1 2 3 4 5
comments
print report bad tab
1 comment total.
+1 reply
Head_With_Face 31 Jan 24, 2011 12:08 PM

The interlude part should be more like:

e-------------------------------|
A-------------------------------|
D-8h9---------------------------|
G----11--9----------------------|
B----------11--12--14-----------|
E-------------------------------|

guest
You may want to rate the tab now too:
select rating
Wanna post a correction for this tab? Suggest correction