Oops, an error
Loading. Please wait.

Big City Train Tab

549 views 6 this week
no commentswrite comment
1 2 3 4 5
please rate
add to favorites
launch autoscroll
font size
0
reset
how to read this tab
guitar tuner
Tab Pro tools
  • play this tab
  • loop segment
  • change instrument
  • show fretboard
  • metronome
×
Best way to learn
"Big City Train"
Autoscroll
slow
fast
+/-
esc
set tempo
stop
No Doubt - Big City Train
Submitted By: Anjel
EMail: chimchim221@yahoo.com
Transcribed by Marco Gaus 


Intro:

E|-----------15-------15-----------------------------------------|
B|-15b-15b------15b------15b-13-15-13-15-13\-/15-15-15-15p13-----|
G|---------------------------------------------------------------|
D|---------------------------------------------------------------|
A|---------------------------------------------------------------|
E|---------------------------------------------------------------|

E|-----------------------------------------------|
B|----10-10--------------------------------------|
G|-8b----------9-7-7h9-7-------------------------|
D|-----------------------10-7-10b--10-7-10-7-10b-|
A|-----------------------------------------------|
E|-----------------------------------------------|

E|-----------------------------|
B|-----10-----10-----10-----10-|
G|-12b----12b----12b----12b----|
D|-----------------------------|
A|-----------------------------|
E|-----------------------------|


Chords for intro:

E|------------|
B|-5--5--7--5-|
G|-2--5--7--5-|
D|-2--5--7--5-|
A|-0--3--5--3-|
E|------------|


Bridge to verse:

E|-----------|
B|-----------|
G|-8-7-5-----|
D|-------7-5-|
A|-----------|
E|-----------|


Chords for verse:

E|-5-------------------------|
B|-5---5----------7----5--5--|
G|-6---5----------7----5--5--|
D|-7---5-------5--7----5--5--|
A|-7---3---5h7----5----3--3--|
E|-5-------------------------|


Chorus:

E|---------------------------------------------|
B|-/8-8-7-7-/8-8-7----7-----------------8-8-10-|
G|-/9-9-7-7-/9-9-7----7---------7-------7-7-9--|
D|-/9-9-7-7-/9-9-7----7-7h9-7h9---9-8-7-5-5-7--|
A|-/7-7-----/7-7------------------------5-5-7--|
E|---------------------------------------------|


Later play the chorus part like this:

E|------------------------------------------------------|
B|-/8-8-7-7-/8-8-7----7-7-----------------8---------10--|
G|-/9-9-7-7-/9-9-7----7-7-----7-7h9p7----7--7-----9-----|
D|-/9-9-7-7-/9-9-7----7-7-7h9---------9-5-----5/7-------|
A|-/7-7-----/7-7----------------------------------------|
E|------------------------------------------------------|


Interlude after 1st verse:

E|-5---7b-5-------------------------------------|
B|-----------8p5--------------------5-----------|
G|---------------7-5----------5--7b---7-5-4-----|
D|-----------------------5-7--------------------|
A|----------------------------------------------|
E|----------------------------------------------|


Interlude (choo choo...)

E|------------------------------------------------------------|
B|------------------------------------------------------------|
G|-8-7-5-----------------8-7-5------------8-7-5---------------|
D|-------7-5------5-7----------7-5-7------------7-5-----5-7---|
A|--------------7--------------------7----------------7-------|
E|------------------------------------------------------------|

E|------------------------|
B|------------------------|
G|-8-7-5------------------|
D|-------7-5--------------|
A|-----------7-6-5---6----|
E|------------------------|


Bridge (Smokestack train is back...):

E|-5--5-5------8---8--8-------------|
B|-5--5-5------8---8--8-----7--7-7--|
G|-5--5-5------9---9--9-----7--7-7--|
D|-7--7-7-----10--10-10-----7--7-7--|
A|----------------------------------|
E|----------------------------------|


hurry grab my luggage...:
 ___________              __________
 |    3x   |              |   2x   |
E|-7---8---|--------------|-7--8---|-------------------------|
B|-8---8---|-5-5-7-7-5--7-|-8--8---|-------------------------|
G|-9---9---|-5-5-7-7-5--7-|-9--9---|--------5-5-5--7-7-7-7-7-|
D|---------|-5-5-7-7-5--7-|--------|-7-7-7--5-5-5--7-7-7-7-7-|
A|---------|-3-3-5-5-3--5-|--------|-7-7-7--3-3-3--5-5-5-5-5-|
E|---------|--------------|--------|-5-5-5-------------------|

Rhythm while other guitar plays solo:
 ___________________________________
 |              3x                 |
E|---------------------------------|---------------------------|
B|---------------------------------|---------------------------|
G|-9-9-9-9-9-9-9-9-5-5-5-5-5-5-5-5-|---------5-5-5-5-7-7-7-7-7-|
D|-9-9-9-9-9-9-9-9-5-5-5-5-5-5-5-5-|-7-7-7---5-5-5-5-7-7-7-7-7-|
A|-7-7-7-7-7-7-7-7-3-3-3-3-3-3-3-3-|-7-7-7---3-3-3-3-5-5-5-5-5-|
E|---------------------------------|-5-5-5---------------------|


Solo:

E|--------------------------------------------------------|
B|--------------------------------------------------------|
G|-12h14p12h14p12h14p12h14p12h14p12h14p12h14-11h12p11\9-9-|
D|--------------------------------------------------------|
A|--------------------------------------------------------|
E|--------------------------------------------------------|

E|------------------------------------------------------|
B|------------------------/8---8----8-10b---10p8---8----|
G|-9\------------------------9-9--9--------------9----9-|
D|----9-7----9b-r---------------------------------------|
A|----------------7\------------------------------------|
E|------------------------------------------------------|

E|---------------------------|
B|---------------------------|
G|---------------------------|
D|-8b-8b-8b-8b-8b-8b-8b-8b---|
A|---------------------------|
E|---------------------------|

End part
This is exactly the chorus part just two frets up (fade out):

E|--------------------------------------------------------|
B|-/10-10-9-9-10-10-9----9---------------------10-10-12---|
G|-/11-11-9-9-11-11-9----9-----------9---------9--9--10---|
D|-/11-11-9-9-11-11-9----9-9h11-9h11---11-10-9-7--7--9----|
A|-/9--9------9--9-----------------------------7--7--9----|
E|--------------------------------------------------------|

Solo in outro:

E|------7------7------7-------------------------------------|
B|-7h10---7h10---7h10----12b-12b--10h12p10---------10b------|
G|--------------------------------------------9h11-----11---|
D|----------------------------------------------------------|
A|----------------------------------------------------------|
E|----------------------------------------------------------|

E|----------------------------------------------------------|
B|----------------------------10-11b-12p10---10/12-12\10----|
G|-11-9--------------------11-----------------9/11-11\9-----|
D|------11-9-9-7-/11-9--------------------------------------|
A|----------------------------------------------------------|
E|----------------------------------------------------------|

E|-------------------------------------------------|
B|----------10-12p10----12-10---12br-12p10h12p10---|
G|-11-11-13----------11----------------------------|
D|-------------------------------------------------|
A|-------------------------------------------------|
E|-------------------------------------------------|

E|---------------------------------------------------------------|
B|-------9-9-9h10p9----9-------9-9-9h10p9----9-------9-9-9h10p9--|
G|-11-11------------11---11-11------------11---11-11-------------|
D|---------------------------------------------------------------|
A|---------------------------------------------------------------|
E|---------------------------------------------------------------|

E|------------------------------------------|
B|-------9-10-12b\--------------------------|
G|-11-11--------------\4-6p4---4------------|
D|-------------------------------4-4--4/7---|
A|------------------------------------------|
E|------------------------------------------|
comments
We did not receive enough feedback on this tab! Please rate:
print report bad tab
1 2 3 4 5
I want to post or [tab]
guest
You may want to rate the tab now too:
select rating
Please do not post tabs as comments. Select "correction" instead!