Oops, an error
Loading. Please wait.

Bnd bass

version 1
version 1

Whole song

Interactive

1,036 views 1 this week
no commentswrite comment
1 2 3 4 5
2 more votes to show rating
add to favorites
×
Save as Personal and add changes to this tab that will be seen only by you. Learn more ›
×
You can save this tab as Personal to edit and correct it or add notes. All changes will be seen only by you. Learn more »
launch autoscroll
font size
0
reset
guitar tuner
edit
Autoscroll
slow
fast
+/-
esc
set tempo
stop
BND (the intro track)
Album: No Doubt
By: No Doubt

This is a cool and funky little tune, and it goes a bit like this...

     intro                             Riff 1                (x3)
   G|---------------------------------|------3-2--0----2-x------|
   D|----3-3---------3-3--------------|*-----------2h3-----2h3-*|
   A|-3------3----3------3---3/15\0---|*-2h3-------------------*|
   E|---------------------------------|-------------------------|


   G|-----2h3-----9---10-|---------------|-----x-x----x----x-----|
   D|--------------------|- Then repeat -|-----------------------|
   A|-2h3-----3/7---8----|- riff 1 ------|-2h3-----2h3--2h3--2h3-|
   E|--------------------|---------------|-----------------------|


   G|----------------|-5-3-----------|----------------------------
   D|- Repeat riff 1-|-----5-3-1-----|*---------------------------
   A|--- again ------|-----------3-1-|*---------------1-1-1-1-2-2-
   E|----------------|---------------|-3-3-3-3-4-4-4-4------------

                        
   G|-----|------------------|--------------------------------------
   D|----*|*----------------*|--------------------------------------
   A|2-2-*|*-3-3-3-3/8--8-8-*|-3-3---3-3---3------------------------
   E|-----|------------------|-----1-----1--------------------------


       Some of the notes are pulled or popped but I couldn't be botherd 
       to tab that.  Figure it out ya self. Its not too hard.  

       If anyone has any corrections or wants any No Doubt stuff tabbed
       e-mail me at  foo2you2000@yahoo.com.  Have fun!  Chris.

            
            
Suggest correction
Creating personal tab
Creating personal tab
You can edit any tab online and save it as your Personal.

You can edit, replace or remove any tab part or add personal notes – all changes will be seen only by you.

Personal tabs can be accessed anytime from any device, even offline.
Learn more »
Give kudos to tab author, rate the tab!
1 2 3 4 5
comments
print report bad tab
guest
Wanna post a correction for this tab? Suggest correction