Oops, an error
Loading. Please wait.

Brand New Day Tab

443 views 6 this week
no commentswrite comment
1 2 3 4 5
please rate
add to favorites
launch autoscroll
font size
0
reset
how to read this tab
guitar tuner
Tab Pro tools
  • play this tab
  • loop segment
  • change instrument
  • show fretboard
  • metronome
×
Best way to learn
"Brand New Day"
Autoscroll
slow
fast
+/-
esc
set tempo
stop
No Doubt - Brand New Day
Submitted By: Anjel
EMail: chimchim221@yahoo.com
Transcribed by Bill Zang  and David Almilli 


Once you learn the riffs...this is the order of the riffs in the song:

Riffs:  A--B--C--D--E--C--E--C--F--E--C--F--G--B--C--H--E--I--J


Riff A (Play this bar twice)
e|-----------------------6-------------------------------------------3-3h4p3------------|
B|-------10------8---------6------4---4----------6---6-----------------------4---4------|
G|----10-------9------7------7------5---5---5------7---7---7------3--------------3------|
D|-10-------10-----8-----------8--6-------6------8-------8------5-----------------------|
A|------------------------------------------------------------6-------------------------|
E|--------------------------------------------------------------------------------------|

Riff B
e|--------------------------------------------------------------------------------------|
B|-----6--------------------------6-6--4-4--4--3-3-----------------------------6-----4--|
G|--7--6--7---2-2--3-3--3--5-5----6-6--4-4--4--3-3----2-2-2--3-3-3--3--5-5-----6-----4--|
D|--8--6--8---3-3--4-4--4--6-6----6-6--4-4--4--3-3----3-3-3--4-4-4--4--6-6-----6-----4--|
A|--8--4--8---3-3--4-4--4--6-6----4-4--2-2--2--1-1----3-3-3--4-4-4--4--6-6-----4-----2--|
E|--6-----6---1-1--2-2--2--4-4------------------------1-1-1--2-2-2--2--4-4--------------|

Riff C
e|-------------------------------------------------|
B|-----10--------------------------------10--------|
G|--7--10---9----9----7-7---9----9----7--10---9----|
D|--8--10--10---10----8-8--10---10----8--10--10----|
A|--8---8--10---10----8-8--10---10----8---8--10----|
E|--6-------8----8----6-6---8----8----6-------8----|

Riff D
e|--------------------|
B|------10--10--------|
G|--9---10--10---9----|  X  4
D|-10---10--10--10----|
A|-10----8---8--10----|
E|--8------------8----|

Riff E
e|---------------------------------------------|
B|---------------------------------------------|
G|---------------------------------------------| X 4 (roughly...easy to hear)
D|---------------------------------------------|
A|-10---10-10-10---10-10-10---10-10-10---10-10-|
E|--8----8--8--8----8--8--8----8--8--8----8--8-|

Riff F (Wah Effect)
e|--------------------------8----------------------------8-----|
B|-10--9--8--7--8--7--8--7------10--9--8--7--8--7--8--7--------|
G|-------------------------------------------------------------|
D|-------------------------------------------------------------|
A|-------------------------------------------------------------|
E|-------------------------------------------------------------|

Riff G (Mild Wah Effect)
e|-----------------------6--------------------------------------------------------------|
B|-------10------8---------6------4---4----------6---6----------------------------------|
G|----10-------9------7------7------5---5---5------7---7---7----------------------------|
D|-10-------10-----8-----------8--6-------6------8-------8------------------------------|
A|--------------------------------------------------------------------------------------|
E|--------------------------------------------------------------------------------------|

e|-----------------------6-------------------------------------------3-3h4p3------------|
B|-------10------8---------6------4---4----------6---6-----------------------4---4------|
G|----10-------9------7------7------5---5---5------7---7---7------3--------------3------|
D|-10-------10-----8-----------8--6-------6------8-------8------5-----------------------|
A|------------------------------------------------------------6-------------------------|
E|--------------------------------------------------------------------------------------|

Riff H
e|-------------------------------------|      |-----------------------------------------|
B|-------------------------------------|      |-----------------------------------------|
G|--9---9---9---9---9---9---9----------|  X 3 |--9---9---9---9---9-----------9----------|
D|-10--10--10--10--10--10--10----------|      |-10--10--10--10--10----------10----------|
A|-10--10--10--10--10--10--10----------|      |-10--10--10--10--10----------10----------|
E|--8---8---8---8---8---8---8--5--6--7-|      |--8---8---8---8---8--5--6--7--8--5--6--7-|

Riff I
e|-------------------------|   |--------------------------------------|
B|-------------------------|   |--------------------------------------|
G|--5----------------------|   |--4-4-4-4--5-5-5-5--7-7-7-7--8-8-8-8--| X 2
D|-----8--5--4-------------|   |--5-5-5-5--6-6-6-6--8-8-8-8--9-9-9-9--|
A|--------------8--6-------|   |--5-5-5-5--6-6-6-6--8-8-8-8--9-9-9-9--|
E|--------------------8----|   |--3-3-3-3--4-4-4-4--6-6-6-6--7-7-7-7--|

Riff J
e|--------------------------------------------------------------------------------------|
B|--------------10-10-10-10---------------10-10-10-10---------10-10---------10-10-------|
G|--9--9--9--9--10-10-10-10---9--9--9--9--10-10-10-10---9--9--10-10---9--9--10-10---9---|
D|-10-10-10-10--10-10-10-10--10-10-10-10--10-10-10-10--10-10--10-10--10-10--10-10--10---|
A|-10-10-10-10---8--8--8--8--10-10-10-10---8--8--8--8--10-10---8--8--10-10---8--8--10---|
E|--8--8--8--8----------------8--8--8--8----------------8--8----------8--8----------8---|


THATS IT!!!
comments
We did not receive enough feedback on this tab! Please rate:
print report bad tab
1 2 3 4 5
I want to post or [tab]
guest
You may want to rate the tab now too:
select rating
Please do not post tabs as comments. Select "correction" instead!