Oops, an error
Loading. Please wait.

Different People Bass Tab

version 1
version 1

Whole song

Interactive

8,531 views 18 this week
1 commentread comment
1 2 3 4 5
accurate
x 6
add to favorites
launch autoscroll
font size
0
reset
guitar tuner
Tab Pro tools
  • play this tab
  • loop segment
  • change instrument
  • show fretboard
  • metronome
×
Best way to learn
"Different People"
Autoscroll
slow
fast
+/-
esc
set tempo
stop
Contributor
Aritst: No Doubt        
Song: Different People
Album: Tragic Kingdom
Tabber: NerdyBassPlayer
Tuning: Standard (EADG)

	Part 1                                         Part 2
G---||--------------------|--------------||--------||--------4--6--4----
D---||--------------------|--------------||--------||-----6-------------
A---||--4--4--4--3--3--3--|--2--2--2--3--||--------||--4----------------
E---||--------------------|--------------||--------||-------------------


G---------------------------|-----------------------------------|-------
D---6--x--------7--6--4-----|-----------------------------------|-------
A------------------------6--|--7--7-----4--7--x--3--x--------3--|--4----
E---------5--5--------------|--------7-----------------3--5-----|-------


G------4--6--4--------------------------|-------------------------------
D---6-----------6--x--------7--6--4-----|-------------------------------
A------------------------------------6--|--7--7-----4--7--x--3--x-------
E---------------------5--5--------------|--------7-----------------3----

                        Part 3
G---------||--------||--------------------------------------|-----------
D---------||--------||-----6--6--6--6--x--------------------|-----------
A------3--||--------||--4-----------------------7--7--7--x--|--7--x-----
E---5-----||--------||--------------------5--5--------------|-----------


G---------------------------|-------------------------------------------
D---------------------------|-----6--6--6--6--x-------------------------
A------4--7--3--x--------3--|--4-----------------------7--7--7--x--7----
E---7--------------3--5-----|--------------------5--5-------------------

                                     repeat 3 x 2
G------|--------------------------------||------------------------------
D------|--------------------------------||------------------------------
A---x--|--7--x-----4--7--3--x--------3--||------------------------------
E------|--------7--------------3--5-----||------------------------------

        Part 4
G---||--------4--6--x--x-----------------|------------------------------
D---||-----6-----------------7--6--4--x--|------------------------------
A---||--4--------------------------------|--7--x-----4--7--3--x---------
E---||--------------------5--------------|--------7--------------3------

G---------|--------4--6--x--x-----------------|-------------------------
D---------|-----6-----------------7--6--4--x--|-------------------------
A------3--|--4--------------------------------|--7--x-----4--7--3--x----
E---5-----|--------------------5--------------|--------7----------------

G------------||-----------||--------------------|--------------||-------
D------------||-----------||--------------------|--------------||-------
A---------3--||-----------||--4--4--4--3--3--3--|--2--2--2--3--||-------
E---3--5-----||-----------||--------------------|--------------||-------

              part 5
G---------||-----------|--------------------|-------------|-------------
D---------||-----------|-----4--------------|-------------|-------------
A---------||--4--3--3--|--2-----2--1--------|-------------|--2--2--2----
E---------||-----------|--------------2--2--|/5--4--2--0--|-------------
               repeat 2 x 2      repeat 3    repeat 4    repeat 5

G---||-----------------------------------------------||-----------------
D---||-----------------------------------------------||-----------------
A---||-----------------------------------------------||--4--4--4--3-----
E---||-----------------------------------------------||-----------------

				 Part 6
G---------|--------------------||---------------------------------------
D---------|--------------------||---------------------------------------
A---3--3--|--2--2--2--3--3--3--||---------------------------------------
E---------|--------------------||-0--2--2--4--4--5--5--7--7-------------


Part 7
G-----------------------------------
D-----------------------------------
A---7--7--------4--4----------------
E---------7--7--------0--2--0--2--4-

G--------------------------------------------------------------------------
D--------------------------------------------------------------------------
A---7--7--7--7--------------4--4--4--4-----------------7--7--7--7--------4-
E---------------7--7--7--7--------------0--2--0--2--4--------------7--7----

G-----------------------------------------------------------------
D---------4--6--4-------------------------------------------------
A---4--6-----------6-----7--7--7--5--5--7--7-----5--7-----------3-
E---------------------5-----------------------7--------7--0--3----

G---------------------------------------------------------
D---------4--6--4--------7--6--7---------------6--6--7--6-
A---4--6-----------6---------------7-----5--7-------------
E---------------------5---------------7-------------------

G-------|----------
D-------|----------
A--—3~--|--4/16/4--
E-------|----------

Go to part 3 

G-------------------------------
D-------------------------------
A--4--4--4--3--3--3--2--2--2--3-
E-------------------------------

Go to part 2     

G-----------------------------------------
D-----------------------------------------
A---4--4--4-----------7--7--7-------------
E------------5--5--5-----------8--8--8--8-

G------------------------------------------------------------------------
D------------------------------------------------------------------------
A---4-----4--3------3--2-----2--3-----3--4-----4--3-----3--2-----2--3~~~-
E------4--------3---------2--------3--------4--------3--------2----------
comments
print report bad tab
1 comment total.
0 reply
LordEarthworm wrote on May 10 2013, 07:14 pm

The main riffs are correct as far as I can tell, but the bridge could use some work. It's somewhat close but there are a lot of variations not being considered.

I want to post or [tab]
guest
You may want to rate the tab now too:
select rating
Please do not post tabs as comments. Select "correction" instead!